Saturday, July 7, 2007

Deeper In Love

Deeper In Love (Album Version)A Christian song by Don Moen. Tells of our desire to know and love Him deeper.





-----------------------------------------------------------------
DEEPER IN LOVE – Don Moen
-----------------------------------------------------------------
Tabbed by: Graham Choo
Email: da_tweens@yahoo.co.uk

Tuning: Standard
Verse 1:
   D   G  Asus D  F#m  Bm  G   A   Bm  G  D/F# Em D/F# G  Asus A7
e|-0---3---0---0---2---2---3---0---2---3---0---3---0---3---0---0-|
B|-3---3---3---3---2---3---3---0---3---3---3---3---3---3---3---2-|
G|-2---0---2---2---2---4---0---2---4---0---2---0---2---0---2---0-|
D|-0---0---2---0---4---4---0---2---4---0---0---2---0---0---2---2-|
A|-----2---0-------4---2---2---0---2---2---0---2---0---2---0---0-|
E|-----3-----------2-------3-----------3---2---0---2---3---------| 
Chorus:
   D  Asus Bm Asus G D/F# Asus A7  
e|-0---0---2---0---3---0---0---0---------------------------------|
B|-3---3---3---3---3---3---3---2---------------------------------|
G|-2---2---4---2---0---2---2---0---------------------------------|
D|-0---2---4---2---2---0---2---2---------------------------------|
A|-----0---2---0---2---0---0---0---------------------------------|
E|-----------------0---2-----------------------------------------| 
   D  Asus Bm  A   G  D/F# Em Asus A7  D
e|-0---0---2---0---3---0---3---0---0---0-------------------------|
B|-3---3---3---0---3---3---3---3---2---3-------------------------|
G|-2---2---4---2---0---2---0---2---0---2-------------------------|
D|-0---2---4---2---0---0---2---2---2---0-------------------------|
A|-----0---2---0---2---0---2---0---0-----------------------------|
E|-----------------3---2---0-------------------------------------| 
Verse 2
Chorus 2x
| /  slide up
| \  slide down
| h  hammer-on
| p  pull-off
| ~  vibrato
| +  harmonic
| x  Mute note

Click HERE To Download PDF

4 comments:

Anonymous said...

hi =]. um in the video u say dat da chorus is.. D, Asus, Bm, Asus nd then u say its Em.... but in the tabs, instead of the Em its a G?? wich 1 is correct??

Graham Choo said...

Hey,

Actually the Em or G is interchangeable for that part of the song. If you play either, you notice that the song still sounds alright. So it's up to you what chord u wanna play :) God bless!

FLix said...

hey have you got the mp3 for this song? i'd really love to have it aye. thanks :)

Anonymous said...

hola dear! i was lookin for this all around and i end it up here. thanx! God Bless..