Friday, July 6, 2007

Made Me Glad

Made Me GladA worship song taken from my favourite Hillsong album - Blessed. The lyrics are taken from 2 Samuel 22:2-3. A song of David, which he sang when the Lord delivered him from the hands of all his enemies, as well as Saul. Indeed he is worthy of all our praise.





-----------------------------------------------------------------
MADE ME GLAD – Hillsongs
-----------------------------------------------------------------
Tabbed by: Graham Choo
Email: da_tweens@yahoo.co.uk

Tuning: Standard
Intro:
   D   D   D   D   A   A   A   A
e|-0---2---0---2---0---0---0---0---------------------------------|
B|-3---3---3---3---0---2---0---2---------------------------------|
G|-2---2---2---2---2---2---2---2---------------------------------|
D|-0---0---0---0---2---2---2---2---------------------------------|
A|-----------------0---0---0---0---------------------------------|
E|---------------------------------------------------------------| 
Verse 1:
   D   D   D   D   A   A   A   A   D   D   D   D   A   A   A   A
e|-0---2---0---2---0---0---0---0---0---2---0---2---0---0---0---0-|
B|-3---3---3---3---0---2---0---2---3---3---3---3---0---2---0---2-|
G|-2---2---2---2---2---2---2---2---2---2---2---2---2---2---2---2-|
D|-0---0---0---0---2---2---2---2---0---0---0---0---2---2---2---2-|
A|-----------------0---0---0---0-------------------0---0---0---0-|
E|---------------------------------------------------------------| 
Verse 2
Pre-Chorus:
   D   Bm  E
e|-0---2---0-----------------------------------------------------|
B|-3---3---0-----------------------------------------------------|
G|-2---4---1-----------------------------------------------------|
D|-0---4---2-----------------------------------------------------|
A|-----2---2-----------------------------------------------------|
E|---------0-----------------------------------------------------| 
Chorus:
   A   Bm  D   E   A   Bm  D   E
e|-0---2---0---0---0---2---0---0---------------------------------|
B|-0---3---3---0---0---3---3---0---------------------------------|
G|-2---4---2---1---2---4---2---1---------------------------------|
D|-2---4---0---2---2---4---0---2---------------------------------|
A|-0---2-------2---0---2-------2---------------------------------|
E|-------------0---------------0---------------------------------| 
Intro
Verse 3
Pre-Chorus
Chorus 2x
| /  slide up
| \  slide down
| h  hammer-on
| p  pull-off
| ~  vibrato
| +  harmonic
| x  Mute note

Click HERE To Download PDF

11 comments:

Joel Bentancur said...

wow....Ive been looking for this song forever. Praise God that you guys are doing this. I finally found a Godly site. Please dont ever stop worshiping. I call you blessed and highly favored!!

Aaron said...

Hey dude. I love your site, but I am trying to learn how to play your song and if your tabs are wrong it is very difficult to learn the song. If you could can you fix the errors? Thanks man.

Graham Choo said...

Hey Aaron, there's nothing wrong with the tabs. Have looked through it. Most of my errors come from the songs with a lot of plucking (mostly the instrumental videos), 'cause that one deals with more individual notes than chords :)

Aaron said...

how do u do a b minor? its so hard

Graham Choo said...

Hey Aaron, the barre chords are one of the toughest for beginners to learn. However, it can be mastered if you stick to a few rules:
1. Press the index finger down hard on the fret, to ensure all notes can be heard
2. Arch the other fingers (middle to last) while pressing the notes, so that they don't "muff" any other strings
3. Remember to always press hard, so that the notes can be heard. Also, a useful tip would be to press nearer to the fret lines. It makes the note more audible.

Hope that helps! :)

jhay-ar said...

i think it's not a Bm on the chorus part. i think it's a F#m.

Graham Choo said...

Hey jhay-ar, we've listened to the mp3, and the chord is indeed a Bm.
But you can still play an F#m if you want to, 'cause it will still go with the song :)

srini said...

Hi there i was wondering if you write the tabs for the the instructional vid for made me glad as the chords sounds more correct . Thank You and God Bless and love your vids . :D

Anonymous said...

Hey,
I am a 67 year old grandma and my grandson wants to learn guitar. I am a Christian and found your site!!! You are such a blessing- I praise my God for you.
I would like to ask you how old you are and how you learned all this.

I find I can worship God as I learn.

Again thanks and I will pass it on to my grandson.

Anonymous said...

Hey I am a 67y old grandma. I love your instruction. I can play worship songs!!!!

I am so happy - keep it up!!!

Graham Choo said...

Hey there, thanks and we're glad the blog has helped you. To God be the glory :)
We're 26 years old, and started playing the guitar about 16 years ago. Just thought we'd use our talents for God's Kingdom work, even via blogs and video websites.