Saturday, July 28, 2007

This Is The Air I Breathe

A simple worship song by Hillsong. When we become Christians, repent and accepts Jesus' forgiveness, the Holy Spirit lives within us, Acts 2:38. And it is the Holy Spirit who guides us through life, teaching us, molding us into Christ-likeness, John 14:26. Indeed, this is the air that we breathe, that gives us life and salvation in Christ Jesus.

In Matthew 4:4, Jesus rebuts Satan's temptation saying, "Man does not live on bread alone, but on every word that comes from the mouth of God." Indeed His Word is our nourishment for the soul, our "daily bread", that keeps us ever in communion and relationship with Him. Knowing this then, what should our response be? - to seek Him ever more and be dependent on the Holy Spirit and His Word to sustain us through this life.



-----------------------------------------------------------------
THIS IS THE AIR I BREATHE – Hillsong
-----------------------------------------------------------------
Tabbed by: Graham Choo
Email: da_tweens@yahoo.co.uk

Tuning: Standard
Intro:
   G   C9  G   C9
e|-3---3---3---3-------------------------------------------------|
B|-3---3---3---3-------------------------------------------------|
G|-0---0---0---0-------------------------------------------------|
D|-0---2---0---2-------------------------------------------------|
A|-2---3---2---3-------------------------------------------------|
E|-3-------3-----------------------------------------------------| 
Verse:
   G   C9  G   C9  G  D/F# Em  C9  Em Dsus
e|-3---3---3---3---3---3---3---3---3---3-------------------------|
B|-3---3---3---3---3---3---3---3---3---3-------------------------|
G|-0---0---0---0---0---2---0---0---0---2-------------------------|
D|-0---2---0---2---0---0---2---2---2---0-------------------------|
A|-2---3---2---3---2---0---2---3---2-----------------------------|
E|-3-------3-------3---2---0-------0-----------------------------| 
   G   C9  G   C9  G  D/F# Em  C9  Em Dsus
e|-3---3---3---3---3---3---3---3---3---3-------------------------|
B|-3---3---3---3---3---3---3---3---3---3-------------------------|
G|-0---0---0---0---0---2---0---0---0---2-------------------------|
D|-0---2---0---2---0---0---2---2---2---0-------------------------|
A|-2---3---2---3---2---0---2---3---2-----------------------------|
E|-3-------3-------3---2---0-------0-----------------------------| 
Chorus:
   G  Dsus Em  C9  Em Dsus G  Dsus Em  C9  Em Dsus
e|-3---3---3---3---3---3---3---3---3---3---3---3-----------------|
B|-3---3---3---3---3---3---3---3---3---3---3---3-----------------|
G|-0---2---0---0---0---2---0---2---0---0---0---2-----------------|
D|-0---0---2---2---2---0---0---0---2---2---2---0-----------------|
A|-2-------2---3---2-------2-------2---3---2---------------------|
E|-3-------0-------0-------3-------0-------0---------------------| 
Verse
Chorus 2x
| /  slide up
| \  slide down
| h  hammer-on
| p  pull-off
| ~  vibrato
| +  harmonic
| x  Mute note

Click HERE To Download PDF

8 comments:

Andrada said...

don’t know you but the videos helped me a lot … thanks :)
i think God is honored every time somebody watches them! i thank Him for… both of you :)

Jason said...

Thanks for your work and time on this. The strumming pattern tips are especially helpful.

Mel said...

I have just started learning guitar, so I do not understand everything, but I think I will spend a lot of time with your vids, because they are REALLY helpful. Maaaaaaaaaany, many thanks for that. I know god's love for you is endless !! He is with you EVERY SINGLE DAY! Even if you can't feel it. Be showered with blessings (:
Mel

Michael said...

The C9 chord you show is really a Cadd9 (often called a C2 in printed sheet music). A C9 has the 1,3,5,b7,and 9 in it - a very nice jazzy voicing. A Cadd9 has the 1,3,5,9 (no flat 7) so it has a more open, less edgey sound.

Graham Choo said...

Hi Michael, thanks for the clarification. We actually just learnt that from a 10-lesson guitar theory course that we attended. Was quite shocked when we realised that just a change in 1 note can change the name of the chord altogether.

Michael said...

Try this:
C scale C-D-E-F-G-A-B-C

C = X320010
(C-E-G-C-E, 1-3-5-1-3)

C9 = X32333
(C-E-Bb-D-G, 1-3-b7-9-1)

Cadd9 = X32030
(C-E-G-D-E, 1-3-5-9-3)

Cadd9* (*happy) = X32033
(C-E-G-D-G, 1-3-5-9-5)

Csus2 = X30013
(C-D-G-C-G, 1-2-5-1-5)

Anonymous said...

FYI, no strumming patterns in chorus of PDF! :)

Graham Choo said...

Hi there, thanks for notifying me there! I'll be adding the strumming pattern for the chorus in a minute.
Thanks!