Tuesday, July 24, 2007

You And Me

A song by Lifehouse. A good song to learn because it's relatively simple to play. I love the unique voice that the lead singer has. And their other songs rock too :P





-----------------------------------------------------------------
YOU AND ME – Lifehouse
-----------------------------------------------------------------
Tabbed by: Graham Choo
Email: da_tweens@yahoo.co.uk

Tuning: Standard
Intro:
   G  C9 D/F# D/B  Em Dsus C9
e|-3---3---3---3---3---3---3-------------------------------------|
B|-3---3---3---3---3---3---3-------------------------------------|
G|-0---0---2---2---0---2---0-------------------------------------|
D|-0---2---0---0---2---0---2-------------------------------------|
A|-2---3---0---2---2-------3-------------------------------------|
E|-3-------2-------0---------------------------------------------| 
Verse 1:
   G  C9 D/F# D/B  Em Dsus C9  G  C9 D/F# D/B  Em Dsus C9 D/C
e|-3---3---3---3---3---3---3---3---3---3---3---3---3---3---2-----|
B|-3---3---3---3---3---3---3---3---3---3---3---3---3---3---3-----|
G|-0---0---2---2---0---2---0---0---0---2---2---0---2---0---0-----|
D|-0---2---0---0---2---0---2---0---2---0---0---2---0---2---0-----|
A|-2---3---0---2---2-------3---2---3---0---2---2-------3---3-----|
E|-3-------2-------0-----------3-------2-------0-----------------|
Chorus 1:
   G  Am7  C9  Em  G   Em Dsus G  Am7  C9  Em  G   Em Dsus C9 D/C
e|-3---3---3---3---3---3---3---3---3---3---3---3---3---3---3---2-|
B|-3---1---3---3---3---3---3---3---1---3---3---3---3---3---3---3-|
G|-0---0---0---0---0---0---2---0---0---0---0---0---0---2---0---0-|
D|-0---2---2---2---0---2---0---0---2---2---2---0---2---0---2---0-|
A|-2---0---3---2---2---2-------2---0---3---2---2---2-------3---3-|
E|-3-----------0---3---0-------3-----------0---3---0-------------| 
Verse 2
Chorus 2:
   G  Am7  C9  Em  G   Em Dsus G  Am7  C9  Em  G   Em Dsus G     
e|-3---3---3---3---3---3---3---3---3---3---3---3---3---3---3-----|
B|-3---1---3---3---3---3---3---3---1---3---3---3---3---3---3-----|
G|-0---0---0---0---0---0---2---0---0---0---0---0---0---2---0-----|
D|-0---2---2---2---0---2---0---0---2---2---2---0---2---0---0-----|
A|-2---0---3---2---2---2-------2---0---3---2---2---2-------2-----|
E|-3-----------0---3---0-------3-----------0---3---0-------3-----| 
Bridge:
   Bm  C9  G  D/F# Em Am7 Dsus Bm  Cm
e|-2---3---3---3---3---3---3---2---3-----------------------------|
B|-3---3---3---3---3---1---3---3---4-----------------------------|
G|-4---0---0---2---0---0---2---4---5-----------------------------|
D|-4---2---0---0---2---2---0---4---5-----------------------------|
A|-2---3---2---0---2---0-------2---3-----------------------------|
E|---------3---2---0---------------------------------------------| 
Chorus 2 2x
Intro
Verse 3:
   G  C9 D/F# D/B  Em Dsus C9 D/C  G                        
e|-3---3---3---3---3---3---3---2---3-----------------------------|
B|-3---3---3---3---3---3---3---3---3-----------------------------|
G|-0---0---2---2---0---2---0---0---0-----------------------------|
D|-0---2---0---0---2---0---2---0---0-----------------------------|
A|-2---3---0---2---2-------3---3---2-----------------------------|
E|-3-------2-------0---------------3-----------------------------|
| /  slide up
| \  slide down
| h  hammer-on
| p  pull-off
| ~  vibrato
| +  harmonic
| x  Mute note

Click HERE To Download PDF

21 comments:

Anonymous said...

Thank You ~ >,<

Anonymous said...

Thanks so much i really needed the tab to impress somone and i have to play it in my school assembley. Thanks you saved me and your awsome at the guitar.

Anonymous said...

you should post the chords to everything by lifehouse...these worked great!

Carter said...

the only problem i have is the strumming at the bridge.

Anonymous said...

You da Mans.

atnavobet said...

thank GOD i found you guys from utube now i can play this song..
request.."i'll be - edwin McCain"
"here without you - 3 doors down"
"iris - goo goo dolls" please
for tose of us who rely on your GOD given talent so that we can also play these beautiful songs
in accoustic guitar. thanks and
GOD bless you and your family!!

Justin Dawson said...

Hey dude! You're just awesome. Thanks for posting the tabs for You and Me. It's really useful! Thanks again,

-Justin

R.Thao said...

This is Great ;]

Anonymous said...

Man that really helped you are a great guitarist and you should take my request of Iris-Goo Goo Dolls and Parachutes-Coldplay

Anonymous said...

dude, you're probably the best guitar teacher alive! especially when its free and online, youre the bomb!

Anyzynha said...

Wow!

Very good.

I like your voice, is cute!

Thanks

Duffy said...

Hi, Could you please post the strumming pattern for this, I've tried the down up down up you mentioned in the video but at some stage of the song it sounds way to slow. I also noticed when your playing it, it doesn't look like you do a down up down up on the first c9

daniel said...

hi Duffy, as explained on the video, i am using the D,UDU strumming pattern.

I'll just write the verse out with the strumming pattern.

Verse: G(D,UDU) C9(D,UDU), D/F#(D,UDU), D/B (D,UDU), Em(D,UDU), D(D,UDU), C9(D,UDU D,UDU)

Sarah said...

very nice, thanks for posting this! god bless

Rebecca said...

Is the first chord of the bridge (B minor) a barre chord? I'm having a little trouble playing it, is there an alternative chord structure that I can use? Please help me finish learning the song, thanks!

Graham Choo said...

Hey Rebecca, you could try D/B instead - x20230.

Rebecca said...

Ok,thank you! :) God bless.

Anonymous said...

Hi!Could you update a pdf for You and Me by Lifehouse?I'd be very grateful:)Thank you for your work, you've already helped me a lot!

Graham Choo said...

Hey there, here it is, the PDF with strumming pattern :)

Grace said...

can you please make a video for Someone by Rembrandts?

Grace said...

Hi! Could you please make a video tutorial for Someone by Rembrandts?