Friday, August 10, 2007

At The Cross

At The CrossA beautiful worship song by Hillsong. Has very meaningful lyrics that speaks of the power of Christ, who loved us even until the point of death. His death justified, redeemed, atoned for our sins, and made us righteous before God - He tore the veil, and now we can have a direct relationship with God our Father, Romans 3:21-26. Him conquering the grave proves that death no longer has mastery over Him, and that we may enter into a new life in Christ, a life no longer slave to sin, Romans 6:1-14. Thank you Jesus.





-----------------------------------------------------------------
AT THE CROSS – Hillsong
-----------------------------------------------------------------
Tabbed by: Graham Choo
Email: da_tweens@yahoo.co.uk

Tuning: Standard
Intro:
   A  G#m  A   B   A  G#m  A   B
e|-0---0---0---0---0---0---0---0---------------------------------|
B|-0---0---0---0---0---0---0---0---------------------------------|
G|-6---4---6---8---6---4---6---8---------------------------------|
D|-7---6---7---9---7---6---7---9---------------------------------|
A|-7---6---7---9---7---6---7---9---------------------------------|
E|-5-------5---7---5-------5---7---------------------------------| 
Verse 1:
  G#m  A   B  C#m G#m  A   B  G#m  A   B  C#m  A   B
e|-0---0---0---4---0---0---0---0---0---0---4---0---0-------------|
B|-0---0---0---5---0---0---0---0---0---0---5---0---0-------------|
G|-4---6---8---6---4---6---8---4---6---8---6---6---8-------------|
D|-6---7---9---6---6---7---9---6---7---9---4---7---9-------------|
A|-6---7---9---4---6---7---9---6---7---9---4---7---9-------------|
E|-----5---7-----------5---7-------5---7-------5---7-------------| 
Verse 2:
  G#m  A   B  C#m G#m  A   B  G#m  A   B  C#m  A   B   A   B
e|-0---0---0---4---0---0---0---0---0---0---4---0---0---0---0-----|
B|-0---0---0---5---0---0---0---0---0---0---5---0---0---0---0-----|
G|-4---6---8---6---4---6---8---4---6---8---6---6---8---6---8-----|
D|-6---7---9---6---6---7---9---6---7---9---4---7---9---7---9-----|
A|-6---7---9---4---6---7---9---6---7---9---4---7---9---7---9-----|
E|-----5---7-----------5---7-------5---7-------5---7---5---7-----| 
Chorus:
   E  C#m  A   B   E  C#m  A   B
e|-0---4---0---0---0---4---0---0---------------------------------|
B|-0---5---0---0---0---5---0---0---------------------------------|
G|-1---6---2---4---1---6---2---4---------------------------------|
D|-2---6---2---4---2---6---2---4---------------------------------|
A|-2---4---0---2---2---4---0---2---------------------------------|
E|-0---------------0---------------------------------------------| 
Intro
Verse 3
Chorus
Bridge:
   A   B  C#m  A  C#m  B   A   B  C#m  A  C#m  B
e|-0---0---4---0---4---0---0---0---4---0---4---0-----------------|
B|-0---0---5---0---5---0---0---0---5---0---5---0-----------------|
G|-2---4---6---2---6---4---2---4---6---2---6---4-----------------|
D|-2---4---6---2---6---4---2---4---6---2---6---4-----------------|
A|-0---2---4---0---4---2---0---2---4---0---4---2-----------------|
E|---------------------------------------------------------------| 
Verse 4
Chorus 2x
Bridge
Intro
| /  slide up
| \  slide down
| h  hammer-on
| p  pull-off
| ~  vibrato
| +  harmonic
| x  Mute note

Click HERE To Download PDF

6 comments:

Michael said...

Your ministry is awesome dude.

I love your blog. I'm learning "You Are My All In All" right now.

Please, don't stop doing what you're doing!

God Bless!

derajem said...

thanks for this chords. i was looking for this one and i knew you already got the intsructional vid. thanks..!~maggie~
~ur avid subscriber
~God bless!~

Anonymous said...

Thanks..been looks for tabs and a tutor...praise the Lord..

Rachel Mae Plaza said...

wow! thank you for this. thank you for providing everything for your subscribers. pdf and tabs in the blog and instruc vid and lyrics in youtube. coooooooool•xoxo

Tony said...

This is a great song... thanks for your help and all you do. I am learning alot from you. Keep up the good work, God bless your ministry

sion noel said...

Hey there i really wanna learn to play this song having a little hard time understanding the way the cords are written here can you simplify it for me please and email it to me at noel_sion@yahoo.com