Friday, August 10, 2007

Mighty To Save

Mighty To SaveA worship song by Hillsong. The phrase "mighty to save", is taken from Zephaniah 3:17 which says, "The LORD your God is with you, He is mighty to save. He will take great delight in you, He will quiet you with His love, He will rejoice over you with singing."

In the context above, Judah is condemned to be destroyed because of their unfaithfulness. However, the obedience of King Josiah postponed this judgment until shortly after his reign. The passage is thus a prophetic one, alluding to Christ who would ultimately come to save His people from this judgment. Jesus' sacrifice for us on the cross brings us salvation if only we would believe. Jesus is indeed mighty to save.





-----------------------------------------------------------------
MIGHTY TO SAVE – Hillsong
-----------------------------------------------------------------
Tabbed by: Graham Choo
Email: da_tweens@yahoo.co.uk

Tuning: Standard
Intro:
   D   A  F#m  E
e|-0---0---0---0-------------------------------------------------|
B|-3---0---0---0-------------------------------------------------|
G|-2---2---2---1-------------------------------------------------|
D|-0---2---4---2-------------------------------------------------|
A|-----0---4---2-------------------------------------------------|
E|-------------0-------------------------------------------------| 
Verse 1:
   D   A  F#m  E   D   A  F#m  E
e|-0---0---0---0---0---0---0---0---------------------------------|
B|-3---0---0---0---3---0---0---0---------------------------------|
G|-2---2---2---1---2---2---2---1---------------------------------|
D|-0---2---4---2---0---2---4---2---------------------------------|
A|-----0---4---2-------0---4---2---------------------------------|
E|-------------0---------------0---------------------------------| 
Pre-Chorus:
   D   E   D   E
e|-0---0---0---0-------------------------------------------------|
B|-3---0---3---0-------------------------------------------------|
G|-2---1---2---1-------------------------------------------------|
D|-0---2---0---2-------------------------------------------------|
A|-----2-------2-------------------------------------------------|
E|-----0-------0-------------------------------------------------| 
Chorus:
   A   E   D   A  F#m  E   A   E   D   A  F#m  E
e|-0---0---0---0---0---0---0---0---0---0---0---0-----------------|
B|-0---0---3---0---0---0---0---0---3---0---0---0-----------------|
G|-2---1---2---2---2---1---2---1---2---2---2---1-----------------|
D|-2---2---0---2---4---2---2---2---0---2---4---2-----------------|
A|-0---2-------0---4---2---0---2-------0---4---2-----------------|
E|-----0---------------0-------0---------------0-----------------| 
Intro
Verse 2
Pre-Chorus
Chorus 2x
Pre-Bridge:
   D   A   E  F#m  D   A   E  F#m
e|-0---0---0---0---0---0---0---0---------------------------------|
B|-3---0---0---0---3---0---0---0---------------------------------|
G|-2---2---1---2---2---2---1---2---------------------------------|
D|-0---2---2---4---0---2---2---4---------------------------------|
A|-----0---2---4-------0---2---4---------------------------------|
E|---------0---------------0-------------------------------------| 
Bridge:
   D   A   E  F#m  D   A   E  F#m
e|-0---0---0---0---0---0---0---0---------------------------------|
B|-3---0---0---0---3---0---0---0---------------------------------|
G|-2---2---1---2---2---2---1---2---------------------------------|
D|-0---2---2---4---0---2---2---4---------------------------------|
A|-----0---2---4-------0---2---4---------------------------------|
E|---------0---------------0-------------------------------------| 
   D   A   E  F#m  D   A   E      
e|-0---0---0---0---0---0---0-------------------------------------|
B|-3---0---0---0---3---0---0-------------------------------------|
G|-2---2---1---2---2---2---1-------------------------------------|
D|-0---2---2---4---0---2---2-------------------------------------|
A|-----0---2---4-------0---2-------------------------------------|
E|---------0---------------0-------------------------------------| 
Chorus 2x
| /  slide up
| \  slide down
| h  hammer-on
| p  pull-off
| ~  vibrato
| +  harmonic
| x  Mute note

Click HERE To Download PDF

10 comments:

Melissa said...

awesome jobbbb i really appreciate your videos.

Anonymous said...

hi daniel could you send me the mp3's if you have any of some of your songs?

thanks

Tom

Graham Choo said...

Hey, Just post on the shoutbox on the main page what which mp3s you want. I'll send them if i have them, through email. So don't forget to drop you email address too! God bless

+//_+eMo said...

kic

+//_+eMo said...

hai!wow i really inspire you!awesomes video.lol
ganda ng gift of talents mu pag patuloy mu lang po yan i know God will bless you more i have request enge nmn ng mp3's mu and gawa ka din po ng madami pang video..Godbless

Anonymous said...

hi...do u have a guitar tuning lesson? plz post or give me the link tnx

my email: janeirotrinta@yahoo.com

Graham Choo said...

Hey, you can refer to Dan's blogs where he posts all the HOW TOs every guitarist usually asks.

http://basicsofguitar.blogspot.com/

Ken said...

Thank you for all you do on here..To say your time and effort is appreciated would be an understatement..

elliott said...

man so good :)
thanks so much daniel! :D

Anonymous said...

so grateful for everything you do!