Friday, August 3, 2007

Everlasting God

Everlasting GodA worship song by Brenton Brown. The gist of the lyrics comes from Isaiah 40:28-31 where the prophet Isaiah issues comfort to God's people who are currently held captive in Babylon. "Do you not know? Have you not heard? the LORD is the everlasting God, the Creator of the ends of the earth. He will not grow tired or weary, and His understanding no one can fathom. He gives strength to the weary, and increases the power of the weak. Even youths grow tired and weary, and young men stumble and fall; but those who hope in the LORD will renew their strength. The will soar on wings like eagles; they will run and not grow weary, they will walk and not be faint."

Whenever we face struggles in life, do we blame God? Ultimately, He knows our situations and He cares - He is always in control, for His ways are higher than ours. And God will helps us through our struggles by providing strength to those who place their hope in Him. He is indeed our source of strength in whom we can depend on.





-----------------------------------------------------------------
EVERLASTING GOD – Brenton Brown
-----------------------------------------------------------------
Tabbed by: Graham Choo
Email: da_tweens@yahoo.co.uk

Tuning: Standard (Capo 3rd Fret)
Intro:
   G           C9          G        C9
e|---------------------------------------------------------------|
B|---------------------------------------------------------------|
G|-0x----------0x----------0x-------0x---------------------------|
D|-0x----------2x----------0x-------2x---------------------------|
A|-2x----0x-2x-3x-3x-2x-0x-2x-0x-2x-3x---------------------------|
E|-3x-3x-------------------3x------------------------------------|  
   G        C9          G
e|----------------------------------3----------------------------|
B|----------------------------------3----------------------------|
G|----------0x-------0x----------0x-0----------------------------|
D|----------0x-------2x----------0x-0----------------------------|
A|-3x-2x-0x-2x-0x-2x-3x-3x-2x-0x-2x------------------------------|
E|----------3x-------------------3x------------------------------|  
Intro 
Verse:
   G           C9          G        C9
e|---------------------------------------------------------------|
B|---------------------------------------------------------------|
G|-0x----------0x----------0x-------0x---------------------------|
D|-0x----------2x----------0x-------2x---------------------------|
A|-2x----0x-2x-3x-3x-2x-0x-2x-0x-2x-3x---------------------------|
E|-3x-3x-------------------3x------------------------------------|  
   G        C9          G
e|----------------------------------3----------------------------|
B|----------------------------------3----------------------------|
G|----------0x-------0x----------0x-0----------------------------|
D|----------0x-------2x----------0x-0----------------------------|
A|-3x-2x-0x-2x-0x-2x-3x-3x-2x-0x-2x------------------------------|
E|----------3x-------------------3x------------------------------| 
Verse 
Pre-Chorus:
  B/G  C9 B/G  C9  Em  D  B/G  C9 B/G  C9  Em  D
e|-----------------3---0-------------------3---0-----------------|
B|-3---3---3---3---3---3---3---3---3---3---3---3-----------------|
G|-0---0---0---0---0---2---0---0---0---0---0---2-----------------|
D|-0---2---0---2---2---0---0---2---0---2---2---0-----------------|
A|-2---3---2---3---2-------2---3---2---3---2---------------------|
E|-----------------0-----------------------0---------------------|  
Chorus:
   G   C9  Em  C9  G   C9  Em  C9
e|-3---3---3---3---3---3---3---3---------------------------------|
B|-3---3---3---3---3---3---3---3---------------------------------|
G|-0---0---0---0---0---0---0---0---------------------------------|
D|-0---2---2---2---0---2---2---2---------------------------------|
A|-2---3---2---3---2---3---2---3---------------------------------|
E|-3-------0-------3-------0-------------------------------------|  
Intro 
Verse 2x 
Pre-Chorus 
Chorus 2x 
Intro 
| /  slide up
| \  slide down
| h  hammer-on
| p  pull-off
| ~  vibrato
| +  harmonic
| x  Mute note

Click HERE To Download PDF

6 comments:

Jim in MO said...

found you on youtube. thanks for sharing the lesson. I'm not a capo guy, but I'll make an exception when the music leaders brings this one to the table

THANKS again

Jim Cox
coxster@yahoo.com

Mr. Burns said...

The tabs and the video don't seem to be the same.

Graham Choo said...

Hey Mr. Burns, I didn't repeat the notes for the downstroke strumming pattern. So it only appears once in the tabs. You have to repeat it according to the strumming pattern :)

Anonymous said...

Hey thanks for your video, im a beginner guitarist but i have already learnt alot from you.. But im unsure about how to play the downstrokes part.. some of the strumming is accented and some are not, i cant seem to find a pattern

Graham Choo said...

Hey, the accents are on the first note of the chords, G...G..C9...G..C9...G..C9...G, G
The letters represent the accented notes, and the "."s represent the unaccented notes.

Lily said...

I found your videos on youtube, i cant tell you how much it means to me to be able to play along with my guitar as i worship. i just started learning the guitar and wouldn't be able to play along without your help. may God bless you!

lily