Wednesday, August 1, 2007

Fall

FallA worship song by Hillsong. Has a really beautiful tune, and lyrics that remind me of Romans 12:1, "Therefore, I urge you, brothers, in view of God's mercy, to offer your bodies as living sacrifices, holy and pleasing to God - this is your spiritual act of worship."

How then are we to express our worship to God? There are a variety of ways in which we can express it. David danced unashamedly among his people. The psalmists talked about the raising and clapping of hands, bowing down, playing music, and a variety of other ways. Paul tells us here yet another way, and that is to offer our lives to God for His using, knowing that that would mean great sacrifice and "dying" to our old self. Are we willing and ready for that? God help us be holy and pleasing living sacrifices for You.





-----------------------------------------------------------------
FALL – Hillsong
-----------------------------------------------------------------
Tabbed by: Graham Choo
Email: da_tweens@yahoo.co.uk

Tuning: Standard
Intro:
   E   A  C#m  B
e|-0---0---4---0-------------------------------------------------|
B|-0---0---5---0-------------------------------------------------|
G|-1---2---6---4-------------------------------------------------|
D|-2---2---6---4-------------------------------------------------|
A|-2---0---4---2-------------------------------------------------|
E|-0-------------------------------------------------------------| 
Verse 1:
   E   A  C#m  B   A  G#m F#m G#m  A   B
e|-0---0---4---0---0---0---0---0---0---0-------------------------|
B|-0---0---5---0---0---0---0---0---0---0-------------------------|
G|-1---2---6---4---2---4---2---4---2---4-------------------------|
D|-2---2---6---4---2---6---4---6---2---4-------------------------|
A|-2---0---4---2---0---6---4---6---0---2-------------------------|
E|-0-------------------------------------------------------------| 
Verse 2:
   E   A  C#m  B   A   B  C#m  E   A   B
e|-0---0---4---0---0---0---4---0---0---0-------------------------|
B|-0---0---5---0---0---0---5---0---0---0-------------------------|
G|-1---2---6---4---2---4---6---1---2---4-------------------------|
D|-2---2---6---4---2---4---6---2---2---4-------------------------|
A|-2---0---4---2---0---2---4---2---0---2-------------------------|
E|-0---------------------------0---------------------------------| 
Chorus:
   E   B  F#m  A   E   B  F#m  B   A
e|-0---0---0---0---0---0---0---0---0-----------------------------|
B|-0---0---0---0---0---0---0---0---0-----------------------------|
G|-1---4---2---2---1---4---2---4---2-----------------------------|
D|-2---4---4---2---2---4---4---4---2-----------------------------|
A|-2---2---4---0---2---2---4---2---0-----------------------------|
E|-0---------------0---------------------------------------------| 
Interlude:
   E  Esus E  Esus
e|-0---0---0---0-------------------------------------------------|
B|-0---0---0---0-------------------------------------------------|
G|-1---2---1---2-------------------------------------------------|
D|-2---2---2---2-------------------------------------------------|
A|-2---2---2---2-------------------------------------------------|
E|-0---0---0---0-------------------------------------------------| 
Verse 2
Chorus 2x
Interlude
Bridge:
   E  C#m  D   B   E  C#m  D   B
e|-0---4---2---0---0---4---2---0---------------------------------|
B|-0---5---3---0---0---5---3---0---------------------------------|
G|-1---6---2---4---1---6---2---4---------------------------------|
D|-2---6---0---4---2---6---0---4---------------------------------|
A|-2---4-------2---2---4-------2---------------------------------|
E|-0---------------0---------------------------------------------| 
Chorus 2x
Interlude
| /  slide up
| \  slide down
| h  hammer-on
| p  pull-off
| ~  vibrato
| +  harmonic
| x  Mute note

Click HERE To Download PDF

1 comment:

James Hernandez said...

Thank you for posting so many songs, your performances are inspiring and I get a guitar lesson, with lyrics on top of that! Blessings upon blessings, I really appreciate all the work you guys put into this. Thank you and God bless you. Jesus Christ is King!