Monday, August 6, 2007

Hallelujah, Your Love Is Amazing

Hallelujah (Your Love Is Amazing) (Everlasting God Album Version)A worship song by Brenton Brown. The lyrics and tune remind me of this word - Joy. Psalm 98:1-4 says, "Sing to the LORD a new song, for He has done marvelous things; His right hand and His holy arm have worked salvation for Him. The Lord has made His salvation known and revealed His righteousness to the nations. He has remembered His love and His faithfulness to the house of Israel; all the ends of the earth have seen the salvation of our God. Shout for joy to the LORD, all the earth, burst into jubilant song with music;"

Indeed God's love for us is amazing. In the times of the exodus, He saved His people from Egypt's rule. He provided them manna from the heavens and water from the rock. But most importantly, He sent His only Son, Jesus, to die on the cross for our sins. There is no greater love than that. His love is amazing, steady and unchanging, and we should respond not only in gratitude and awe, but also with joy, as we worship Him for all that He has done for us.





------------------------------------------------------------------------------
HALLELUJAH, YOUR LOVE IS AMAZING – Brenton Brown
------------------------------------------------------------------------------
Tabbed by: Graham Choo
Email: da_tweens@yahoo.co.uk

Tuning: Standard
Chorus:
   G  Dsus Em  C9  G  Dsus Em  C9 D/C
e|-3---3---3---3---3---3---3---3---2-----------------------------|
B|-3---3---3---3---3---3---3---3---3-----------------------------|
G|-0---2---0---0---0---2---0---0---0-----------------------------|
D|-0---0---2---2---0---0---2---2---0-----------------------------|
A|-2-------2---3---2-------2---3---3-----------------------------|
E|-3-------0-------3-------0-------------------------------------| 
Verse 1:
  D/B  C9 Dsus C9 D/B  C9 Dsus C9
e|-3---3---3---3---3---3---3---3---------------------------------|
B|-3---3---3---3---3---3---3---3---------------------------------|
G|-2---0---2---0---2---0---2---0---------------------------------|
D|-0---2---0---2---0---2---0---2---------------------------------|
A|-2---3-------3---2---3-------3---------------------------------|
E|---------------------------------------------------------------| 
Chorus
Verse 2
Chorus 2x
| /  slide up
| \  slide down
| h  hammer-on
| p  pull-off
| ~  vibrato
| +  harmonic
| x  Mute note

Click HERE To Download PDF

2 comments:

LOEF said...

Hey Guys You are great!! Good job with chords and lyrics
Psalm 27

LOEF said...

You guys are great! keep up the great work with chords and lyrics