Monday, August 6, 2007

Lord Reign In Me

Lord, Reign In MeA worship song by Brenton Brown. A song of rededication, asking God to reign in us once again. In Revelations 2:4-5, the angel of the church in Ephesus writes this, "Yet I hold this against you: You have forsaken your first love. Remember the height from which you have fallen! Repent and do the things you did at first. If you do not repent, I will come to you and remove your lampstand from its place."

Have we forsaken our first love for the things of the world? Remember the times when the Lord reigned supreme in your life. Lord help us to put you first in everything we do. Lord reign in us once again, so that we may never again forsake you. Amen.





-----------------------------------------------------------------
LORD REIGN IN ME – Brenton Brown
-----------------------------------------------------------------
Tabbed by: Graham Choo
Email: da_tweens@yahoo.co.uk

Tuning: Standard
Intro:
   C   G   F   Am  G   F
e|-0---3---1---0---3---1-----------------------------------------|
B|-1---3---1---1---3---1-----------------------------------------|
G|-0---0---2---2---0---2-----------------------------------------|
D|-2---0---3---2---0---3-----------------------------------------|
A|-3---2---3---0---2---3-----------------------------------------|
E|-----3---1-------3---1-----------------------------------------| 
Verse 1:
   C   G   F   G   C   G   F   G  Am7  G   F   G   Dm  F   G   C
e|-0---3---1---3---0---3---1---3---0---3---1---3---1---1---3---0-|
B|-1---3---1---3---1---3---1---3---1---3---1---3---3---1---3---1-|
G|-0---0---2---0---0---0---2---0---0---0---2---0---2---2---0---0-|
D|-2---0---3---0---2---0---3---0---2---0---3---0---0---3---0---2-|
A|-3---2---3---2---3---2---3---2---0---2---3---2-------3---2---3-|
E|-----3---1---3-------3---1---3-------3---1---3-------1---3-----| 
Chorus:
   C   G   F   G   C   G   F   G  Am7  G   F   G   Dm  F   G   C
e|-0---3---1---3---0---3---1---3---0---3---1---3---1---1---3---0-|
B|-1---3---1---3---1---3---1---3---1---3---1---3---3---1---3---1-|
G|-0---0---2---0---0---0---2---0---0---0---2---0---2---2---0---0-|
D|-2---0---3---0---2---0---3---0---2---0---3---0---0---3---0---2-|
A|-3---2---3---2---3---2---3---2---0---2---3---2-------3---2---3-|
E|-----3---1---3-------3---1---3-------3---1---3-------1---3-----| 
Intro
Verse 2
Chorus
   Dm  F   G
e|-1---1---3-----------------------------------------------------|
B|-3---1---3-----------------------------------------------------|
G|-2---2---0-----------------------------------------------------|
D|-0---3---0-----------------------------------------------------|
A|-----3---2-----------------------------------------------------|
E|-----1---3-----------------------------------------------------| 
Intro 
| /  slide up
| \  slide down
| h  hammer-on
| p  pull-off
| ~  vibrato
| +  harmonic
| x  Mute note

Click HERE To Download PDF

1 comment:

... said...

O:) Amen.