Wednesday, August 1, 2007

Lord I Give You My Heart

I Give You My HeartA familiar worship song by Hillsong. When it comes to worshiping God, we are to worship Him with all that we are. Jesus puts the "all-that-you-are" criteria quite aptly when he said in Mark 12:30, "Love the Lord your God with all your heart and with all your soul and with all your mind and with all your strength." Do we praise the Lord with our inmost being as Psalm 103:1-2 puts it? Help us of live lives that offer all that we are for your using.





-----------------------------------------------------------------
LORD I GIVE YOU MY HEART – Hillsong
-----------------------------------------------------------------
Tabbed by: Graham Choo
Email: da_tweens@yahoo.co.uk

Tuning: Standard
Intro:
   C   D   Bm  Em  C   D   Bm  D
e|-0---0---2---0---0---0---2---2---------------------------------|
B|-1---3---3---0---1---3---3---3---------------------------------|
G|-0---0---4---0---0---0---4---2---------------------------------|
D|-2---4---4---2---2---4---4---0---------------------------------|
A|-3---5---2---2---3---5---2-------------------------------------|
E|-------------0-------------------------------------------------| 
Verse:
   G   Em  C9  G   D  Dsus Em D/F# G   F   C   D
e|-3---3---3---3---2---3---3---3---3---0---0---0-----------------|
B|-3---3---3---3---3---3---3---3---3---1---1---3-----------------|
G|-0---0---0---0---2---2---0---2---0---2---0---0-----------------|
D|-0---2---2---0---0---0---2---0---0---3---2---4-----------------|
A|-2---2---3---2-----------2---0---2-------3---5-----------------|
E|-3---0-------3-----------0---2---3-----------------------------| 
   G   Em  C9  G   D  Dsus Em D/F# G   F   C   D
e|-3---3---3---3---2---3---3---3---3---0---0---0-----------------|
B|-3---3---3---3---3---3---3---3---3---1---1---3-----------------|
G|-0---0---0---0---2---2---0---2---0---2---0---0-----------------|
D|-0---2---2---0---0---0---2---0---0---3---2---4-----------------|
A|-2---2---3---2-----------2---0---2-------3---5-----------------|
E|-3---0-------3-----------0---2---3-----------------------------| 
Chorus:
   G Dsus Am7  C   D   G Dsus Am7  C   D
e|-3---3---0---0---0---3---3---0---0---0-------------------------|
B|-3---3---1---1---3---3---3---1---1---3-------------------------|
G|-0---2---0---0---0---0---2---0---0---0-------------------------|
D|-0---0---2---2---4---0---0---2---2---4-------------------------|
A|-2-------0---3---5---2-------0---3---5-------------------------|
E|-3-------------------3-----------------------------------------| 
   G Dsus Am7  C   D   G Dsus Am7  C   D
e|-3---3---0---0---0---3---3---0---0---0-------------------------|
B|-3---3---1---1---3---3---3---1---1---3-------------------------|
G|-0---2---0---0---0---0---2---0---0---0-------------------------|
D|-0---0---2---2---4---0---0---2---2---4-------------------------|
A|-2-------0---3---5---2-------0---3---5-------------------------|
E|-3-------------------3-----------------------------------------| 
Interlude:
   C   D
e|-0---0---------------------------------------------------------|
B|-1---3---------------------------------------------------------|
G|-0---0---------------------------------------------------------|
D|-2---4---------------------------------------------------------|
A|-3---5---------------------------------------------------------|
E|---------------------------------------------------------------| 
Verse
Chorus
Intro
| /  slide up
| \  slide down
| h  hammer-on
| p  pull-off
| ~  vibrato
| +  harmonic
| x  Mute note

Click HERE To Download PDF

7 comments:

Anonymous said...

for the D is it 030450?

Graham Choo said...

Hey, you're right! Sorry for the typo. Will change it immediately! :)

Jon said...

The videos don't seem to be working

Graham Choo said...

Hey Jon, that happens sometimes. I think it's got to do with your service provider though, cause that was the same problem i experienced before

iskuhm said...

Hi,.I've been learning to play guitar for over 2 months now and I think I can already lead our praise and worship. Thanks to your videos. . They are really helpful to me and to all your viewers. I'll be visiting your blog more often now. God bless you and continue to be God's instrument of His blessings.PTL!

Peterson said...

Choo,

This is Peterson from Brazil. I'm here to say that you're really awesome bro! You help people like us who wants to praise the Lord playing right and all and you don't charge a penny for that! This is very nice of you, using the gift the Lord has gave you to bless the others.

God bless you my brother and keep the good job and He will reward you!
Hope to come here more times.

In Christ,
Peterson

Rod Luang said...

Thank Bro, Im new in guitar and your strumming helps me a lot. God bless you and your family.