Saturday, August 25, 2007

My Redeemer Lives

My Redeemer LivesA worship song by Hillsong. While the fast tune really gets people up and jumping, let's not get carried away by emotions but take some time to focus on the lyrics of the song. Jesus is our redeemer because His blood has saved us from the penalty of sin. He has redeemed our souls through the perfect sacrifice of Himself, that no goat of sheep could accomplish. Moreover, because He was raised from the dead, and lives, our faith is not in vain. 1 Corinthians 15:17 says, "And if Christ has not been raised, your faith is futile; you are still in your sins."Thank you Jesus for being raised. Indeed we can shout, "My redeemer lives!"





-----------------------------------------------------------------
MY REDEEMER LIVES – Hillsong
-----------------------------------------------------------------
Tabbed by: Graham Choo
Email: da_tweens@yahoo.co.uk

Tuning: Standard
Intro:
   E7  A7  E7  A7
e|-0---0---0---0-------------------------------------------------|
B|-3---2---3---2-------------------------------------------------|
G|-1---0---1---0-------------------------------------------------|
D|-0---2---0---2-------------------------------------------------|
A|-2---0---2---0-------------------------------------------------|
E|-0-------0-----------------------------------------------------|
Verse:
   E7  A7  E7  A7  E7  A7  E7  A7
e|-0---0---0---0---0---0---0---0---------------------------------|
B|-3---2---3---2---3---2---3---2---------------------------------|
G|-1---0---1---0---1---0---1---0---------------------------------|
D|-0---2---0---2---0---2---0---2---------------------------------|
A|-2---0---2---0---2---0---2---0---------------------------------|
E|-0-------0-------0-------0-------------------------------------| 
   E7  A7  E7  A7  E7  A7  E7  A7
e|-0---0---0---0---0---0---0---0---------------------------------|
B|-3---2---3---2---3---2---3---2---------------------------------|
G|-1---0---1---0---1---0---1---0---------------------------------|
D|-0---2---0---2---0---2---0---2---------------------------------|
A|-2---0---2---0---2---0---2---0---------------------------------|
E|-0-------0-------0-------0-------------------------------------| 
Pre-Chorus:
   B   A   B
e|-0---0---0-----------------------------------------------------|
B|-0---0---0-----------------------------------------------------|
G|-4---2---4-----------------------------------------------------|
D|-4---2---4-----------------------------------------------------|
A|-2---0---2-----------------------------------------------------|
E|---------------------------------------------------------------| 
Chorus:
   E   A  C#m  B   E   A  C#m  B
e|-0---0---4---0---0---0---4---0---------------------------------|
B|-0---0---5---0---0---0---5---0---------------------------------|
G|-1---2---6---4---1---2---6---4---------------------------------|
D|-2---2---6---4---2---2---6---4---------------------------------|
A|-2---0---4---2---2---0---4---2---------------------------------|
E|-0---------------0---------------------------------------------| 
Intro
Verse
Pre-Chorus
Chorus
Bridge:
   D  F#m  E  F#m  A   B
e|-2---0---0---0---0---0-----------------------------------------|
B|-3---0---0---0---0---0-----------------------------------------|
G|-2---2---1---2---2---4-----------------------------------------|
D|-0---4---2---4---2---4-----------------------------------------|
A|-----4---2---4---0---2-----------------------------------------|
E|---------0-----------------------------------------------------| 
Chorus 2x
| /  slide up
| \  slide down
| h  hammer-on
| p  pull-off
| ~  vibrato
| +  harmonic
| x  Mute note

Click HERE To Download PDF

4 comments:

josh said...

Haha! Nice way to put the chords/tabs. My first song learnt! Thanks! God may somehow bring sad times to you, but here is always a way because our redeemer lives! Amen!

Anonymous said...

Excellent! Thank you so much! The strumming pattern was blowing my mind until I saw your video.

I have to practice this for the first time with my Praise & Worship band in the morning (Saturday) then play it Sunday.

God bless...

- Steve

Anonymous said...

Very nice video. Great singing and guitar playing. Helped HEAPS!!

Thanks very much.

Yogesh said...

Thanks choo..

@Josh - God never brings sad times. GOD is GOOD all the time. ;)

Yogesh