Saturday, September 8, 2007

At The Foot Of The Cross

At The Foot Of The Cross (Ashes To Beauty)A worship song by Kathryn Scott. In Isaiah 61:1-3, the prophet Isaiah says, "The Spirit of the Sovereign LORD is on me, because the LORD has anointed me to preach good news to the poor. He has sent me to bind up the brokenhearted, to proclaim freedom for the captives and release from darkness for the prisoners, to proclaim the year of the LORD's favor and the day of vengeance of our God, to comfort all who mourn, and provide for those who grieve in Zion— to bestow on them a crown of beauty instead of ashes, the oil of gladness instead of mourning, and a garment of praise instead of a spirit of despair. They will be called oaks of righteousness, a planting of the LORD for the display of his splendor."

Isaiah proclaims a prophecy of the one who is to come, Christ, who will accomplish the redemption of man through his death on the cross for us. He is the Comforter to the humble in spirit, for those who are willing to lay their burdens and lives down in submission to Him. It is what Christ has done on the cross for us that we can rejoice and be made righteous in God's sight. Thank you for the cross Lord Jesus.






-----------------------------------------------------------------
AT THE FOOT OF THE CROSS – Kathryn Scott
-----------------------------------------------------------------
Tabbed by: Graham Choo
Email: da_tweens@yahoo.co.uk

Tuning: Standard (Capo 2nd Fret)
Intro:
   D     D
e|-0h2---2h2-----------------------------------------------------|
B|-3-3---3-3-----------------------------------------------------|
G|-2-2---2-2-----------------------------------------------------|
D|-0-0---0-0-----------------------------------------------------|
A|---------------------------------------------------------------|
E|---------------------------------------------------------------| 
Verse 1:
  Asus D/B G   D  Asus D/B G  Asus A7
e|-0---0---3---2---0---0---3---0---0-----------------------------|
B|-3---3---3---3---3---3---3---3---2-----------------------------|
G|-2---2---0---2---2---2---0---2---0-----------------------------|
D|-2---0---0---0---2---0---0---2---2-----------------------------|
A|-0---2---2-------0---2---2---0---0-----------------------------|
E|---------3---------------3-------------------------------------| 
Pre-Chorus:
   Em D/F# G  Asus Em D/F# G  Asus
e|-3---3---3---0---3---3---3---0---------------------------------|
B|-3---3---3---3---3---3---3---3---------------------------------|
G|-0---2---0---2---0---2---0---2---------------------------------|
D|-2---0---0---2---2---0---0---2---------------------------------|
A|-2---0---2---0---2---0---2---0---------------------------------|
E|-0---2---3-------0---2---3-------------------------------------| 
Chorus 1:
   D  Asus Em  D  Asus Em  D  Asus Em D/B Asus Em Asus D
e|-2---0---3---2---0---3---2---0---3---0---0---3---0---2---------|
B|-3---3---3---3---3---3---3---3---3---3---3---3---3---3---------|
G|-2---2---0---2---2---0---2---2---0---2---2---0---2---2---------|
D|-0---2---2---0---2---2---0---2---2---0---2---2---2---0---------|
A|-----0---2-------0---2-------0---2---2---0---2---0-------------|
E|---------0-----------0-----------0-----------0-----------------|
Verse 2
Pre-Chorus
Chorus 1
Chorus 2:
   D  Asus Em  D  Asus Em  D  Asus Em D/B Asus Em
e|-2---0---3---2---0---3---2---0---3---0---0---3-----------------|
B|-3---3---3---3---3---3---3---3---3---3---3---3-----------------|
G|-2---2---0---2---2---0---2---2---0---2---2---0-----------------|
D|-0---2---2---0---2---2---0---2---2---0---2---2-----------------|
A|-----0---2-------0---2-------0---2---2---0---2-----------------|
E|---------0-----------0-----------0-----------0-----------------| 
  D/B Asus Em D/B Asus Em Asus D  Asus D  Asus D
e|-0---0---3---0---0---3---0---0---0---0---0---0h2---------------|
B|-3---3---3---3---3---3---3---3---3---3---3---3-3---------------|
G|-2---2---0---2---2---0---2---2---2---2---2---2-2---------------|
D|-0---2---2---0---2---2---2---0---2---0---2---0-0---------------|
A|-2---0---2---2---0---2---0-------0-------0---------------------|
E|---------0-----------0-----------------------------------------| 
| /  slide up
| \  slide down
| h  hammer-on
| p  pull-off
| ~  vibrato
| +  harmonic
| x  Mute note

Click HERE To Download PDF

6 comments:

David said...

Praise ADONAI, you are an anointed teacher!! I came across your site last night and I'm anxious to start playing seriously again.

If you take requests I'd really love to learn "Grace in the Wliderness" by Eoghan Heaslip.

Graham Choo said...

Hey David thanks. I tried looking up the song in YouTube but it's not there. Any mp3 which i can listen to?

david said...

I can't find it out there anywhere, can I e-mail you the mp3 ?

Graham Choo said...

Sure, just send it to my email address at da_tweens@yahoo.co.uk

godsgirrl4 said...

Wow David. I absolutely love this song. And you do a GREAT job at it! Seeing your heart for our heavenly Father is very encouraging. Keep it up. :) Do you mind if I ask where you are from? I have met several exchange students at my college that are from South Korea. God has truly blessed me with their friendship and encouraging faith that comes from the other side of the world! The best way to contact me is at jessica.moore@okstate.edu Look forward to hearing back from you! Be blessed.

Anonymous said...

Thanks for the video and chords to this song. May you be abundantly blessed! Keep goin' in Jesus :)