Thursday, September 6, 2007

Trading My Sorrows

Trading My Sorrows (Yes Lord)A worship song by Darrell Evans. Talks about the persecutions and hardships Christians face for the sake of the Lord. But through it all, He does not abandon us, but sees us through with an unexplainable joy and hope that only He can give.

2 Corinthians 4:8-10 says, "We are hard pressed o n every side, but not crushed; perplexed, but not in despair; persecuted, but not abandoned; struck down, but not destroyed. We always carry around in our body the death of Jesus, so that the life of Jesus may also be revealed in our body." But here's some advice from Paul in verses 17-18 which says, "For our light and momentary troubles are achieving for us an eternal glory that far outweighs them all. So we fix our eyes not on what is seen, but on what is unseen. For what is seen is temporary, but what is unseen is eternal." Do we give in to our struggles, or endure them with the knowledge of Christ and His death for us and what it has done and is doing in our lives. God help us to fix our eyes on you and only you.





-----------------------------------------------------------------
TRADING MY SORROWS – Darrel Evans
-----------------------------------------------------------------
Tabbed by: Graham Choo
Email: da_tweens@yahoo.co.uk

Tuning: Standard
Intro:
   A   D  F#m  E   A   D  F#m  E
e|-0---0---0---0---0---0---0---0---------------------------------|
B|-0---3---0---0---0---3---0---0---------------------------------|
G|-2---2---2---1---2---2---2---1---------------------------------|
D|-2---0---4---2---2---0---4---2---------------------------------|
A|-0-------4---2---0-------4---2---------------------------------|
E|-------------0---------------0---------------------------------| 
Verse 1:
   A   D  F#m  E   A   D  F#m  E   A   D  F#m  E   A   D  F#m  E
e|-0---0---0---0---0---0---0---0---0---0---0---0---0---0---0---0-|
B|-0---3---0---0---0---3---0---0---0---3---0---0---0---3---0---0-|
G|-2---2---2---1---2---2---2---1---2---2---2---1---2---2---2---1-|
D|-2---0---4---2---2---0---4---2---2---0---4---2---2---0---4---2-|
A|-0-------4---2---0-------4---2---0-------4---2---0-------4---2-|
E|-------------0---------------0---------------0---------------0-| 
   A   D  F#m  E   A   D  F#m  E   A   D  F#m  E   A   D  F#m  E
e|-0---0---0---0---0---0---0---0---0---0---0---0---0---0---0---0-|
B|-0---3---0---0---0---3---0---0---0---3---0---0---0---3---0---0-|
G|-2---2---2---1---2---2---2---1---2---2---2---1---2---2---2---1-|
D|-2---0---4---2---2---0---4---2---2---0---4---2---2---0---4---2-|
A|-0-------4---2---0-------4---2---0-------4---2---0-------4---2-|
E|-------------0---------------0---------------0---------------0-| 
Chorus:
   A   D  F#m  E   A   D  F#m  E   A   D  F#m  E   A   D  F#m  E
e|-0---0---0---0---0---0---0---0---0---0---0---0---0---0---0---0-|
B|-0---3---0---0---0---3---0---0---0---3---0---0---0---3---0---0-|
G|-2---2---2---1---2---2---2---1---2---2---2---1---2---2---2---1-|
D|-2---0---4---2---2---0---4---2---2---0---4---2---2---0---4---2-|
A|-0-------4---2---0-------4---2---0-------4---2---0-------4---2-|
E|-------------0---------------0---------------0---------------0-| 
   A   D  F#m  E   A   D  F#m  E   A   D  F#m  E   A   D  F#m  E
e|-0---0---0---0---0---0---0---0---0---0---0---0---0---0---0---0-|
B|-0---3---0---0---0---3---0---0---0---3---0---0---0---3---0---0-|
G|-2---2---2---1---2---2---2---1---2---2---2---1---2---2---2---1-|
D|-2---0---4---2---2---0---4---2---2---0---4---2---2---0---4---2-|
A|-0-------4---2---0-------4---2---0-------4---2---0-------4---2-|
E|-------------0---------------0---------------0---------------0-|
Verse 2 
Pre-Chorus:
   E   G   D
e|-0---3---0-----------------------------------------------------|
B|-0---3---3-----------------------------------------------------|
G|-1---0---2-----------------------------------------------------|
D|-2---0---0-----------------------------------------------------|
A|-2---2---------------------------------------------------------|
E|-0---3---------------------------------------------------------| 
Verse 1
| /  slide up
| \  slide down
| h  hammer-on
| p  pull-off
| ~  vibrato
| +  harmonic
| x  Mute note

Click HERE To Download PDF

4 comments:

david said...

Thank you so much god bless you!

Michael said...

I soooo appreciate this!!
Gives me a chance to sing in church now!! God Bless you!!

Marcella said...

Thank you so much for your clear instructions about the strumming. You helped me a lot! :o))

Valdis Zelcs said...

I am very blessed by this instructional videos. God bless you. I live in Latvia. It is such a joy to have such a brother in Christ in Singapore.