Sunday, September 2, 2007

A Greater Song

A Greater SongA worship song by Paul Baloche. It reminds me of Psalm 19:1-6, where King David recognizes that all the heavens declare the glory of God throughout all the earth. His greater song, and that which should be of ours too, is found in the following verses from 7-14: To fear the Lord and His precepts and to keep our ways from sin. Oh Lord teach us to live in obedience of You.





-----------------------------------------------------------------
A GREATER SONG – Paul Baloche
-----------------------------------------------------------------
Tabbed by: Graham Choo
Email: da_tweens@yahoo.co.uk

Tuning: Standard
Intro:
  D/F# G   C9 D/F# G   C9
e|-3---3---3---3---3---3-----------------------------------------|
B|-3---3---3---3---3---3-----------------------------------------|
G|-2---0---0---2---0---0-----------------------------------------|
D|-0---0---2---0---0---2-----------------------------------------|
A|-0---2---3---0---2---3-----------------------------------------|
E|-2---3-------2---3---------------------------------------------| 
Verse 1:
  D/F# G   C9 D/F# G   C9 D/F# G   C9 D/F# G   C9
e|-3---3---3---3---3---3---3---3---3---3---3---3-----------------|
B|-3---3---3---3---3---3---3---3---3---3---3---3-----------------|
G|-2---0---0---2---0---0---2---0---0---2---0---0-----------------|
D|-0---0---2---0---0---2---0---0---2---0---0---2-----------------|
A|-0---2---3---0---2---3---0---2---3---0---2---3-----------------|
E|-2---3-------2---3-------2---3-------2---3---------------------| 
Pre-Chorus:
   Em D/F# G   C9
e|-3---3---3---3-------------------------------------------------|
B|-3---3---3---3-------------------------------------------------|
G|-0---2---0---0-------------------------------------------------|
D|-2---0---0---2-------------------------------------------------|
A|-2---0---2---3-------------------------------------------------|
E|-0---2---3-----------------------------------------------------| 
Chorus 1:
   G  D/F# Em  C9  G  D/F# Em  C9
e|-3---3---3---3---3---3---3---3---------------------------------|
B|-3---3---3---3---3---3---3---3---------------------------------|
G|-0---2---0---0---0---2---0---0---------------------------------|
D|-0---0---2---2---0---0---2---2---------------------------------|
A|-2---0---2---3---2---0---2---3---------------------------------|
E|-3---2---0-------3---2---0-------------------------------------| 
Verse 2
Pre-Chorus
Chorus 1 2x 
Bridge:
   G  D/F# Em  C9  G  D/F# Em  C9
e|-3---3---3---3---3---3---3---3---------------------------------|
B|-3---3---3---3---3---3---3---3---------------------------------|
G|-0---2---0---0---0---2---0---0---------------------------------|
D|-0---0---2---2---0---0---2---2---------------------------------|
A|-2---0---2---3---2---0---2---3---------------------------------|
E|-3---2---0-------3---2---0-------------------------------------| 
Pre-Chorus
Chorus 2:
   G  D/F# D/F C9  G  D/F# D/F C9  G  D/F# D/F C9  G  D/F# D/F C9
e|-3---3---3---3---3---3---3---3---3---3---3---3---3---3---3---3-|
B|-3---3---3---3---3---3---3---3---3---3---3---3---3---3---3---3-|
G|-0---2---2---0---0---2---2---0---0---2---2---0---0---2---2---0-|
D|-0---0---0---2---0---0---0---2---0---0---0---2---0---0---0---2-|
A|-2---0---0---3---2---0---0---3---2---0---0---3---2---0---0---3-|
E|-3---2---1-------3---2---1-------3---2---1-------3---2---1-----| 
D/C  G
e|-2---3---------------------------------------------------------|
B|-3---3---------------------------------------------------------|
G|-0---0---------------------------------------------------------|
D|-0---0---------------------------------------------------------|
A|-3---2---------------------------------------------------------|
E|-----3---------------------------------------------------------| 
| /  slide up
| \  slide down
| h  hammer-on
| p  pull-off
| ~  vibrato
| +  harmonic
| x  Mute note

Click HERE To Download PDF

1 comment:

k3ro said...

hey Graham..thankU so much for your enthusiast and passion in helping+teaching others to play and understand the meaning of each songs thru' the Word. Appreciate it so much. It really helps a GREAT deal for guitar newbies like me. Keep up the work!!~~Gbu.^^