Wednesday, September 19, 2007

Here In Your Presence

Here In Your PresenceA worship song by Desperation Band. In Psalm 16, David wrote about how he sought refuge in God (v. 1), probably at a time when King Saul was looking to kill him. Having God as his god, his fears of falling into the hands of Saul was wiped away, because he knew that God would not abandon (v. 10) those who fear Him (v. 8). He understood that he had no good thing to offer apart from God (v. 2). He understood that there was joy to be found in God's presence (v. 11).

Here in Your presence, there is fullness of joy because we know that "If God is for us, who can be against us" (Romans 8:28). He has saved us entirely by His grace and love through Jesus' sacrifice, and not by any works of man. God has not abandoned us, but in fact has brought us into His presence through that ultimate sacrifice. "Therefore, if anyone is in Christ, he is a new creation; the old has gone, the new has come!" (2 Corinthians 5:17). Rejoice, but fear as well, for in God's presence, we are both loved and judged.





-----------------------------------------------------------------
HERE IN YOUR PRESENCE – Desperation Band
-----------------------------------------------------------------
Tabbed by: Graham Choo
Email: da_tweens@yahoo.co.uk

Tuning: Eb Ab Db Gb Bb Eb
Intro:
  Dsus D   D   D   Em D/E  Em D/E  G  Dsus D   D   D
e|-3---2---0---2---3---2---0---2---3---3---2---0---2-------------|
B|-3---3---3---3---3---3---3---3---3---3---3---3---3-------------|
G|-2---2---2---2---0---0---0---0---0---2---2---2---2-------------|
D|-0---0---0---0---2---0---0---0---0---0---0---0---0-------------|
A|-----------------2---2---2---2---2-----------------------------|
E|-----------------0---0---0---0---3-----------------------------| 
Intro
Verse:
  Dsus D   D   D   Em D/F# G  Dsus D   D   D
e|-3---2---0---2---3---0---3---3---2---0---2---------------------|
B|-3---3---3---3---3---3---3---3---3---3---3---------------------|
G|-2---2---2---2---0---2---0---2---2---2---2---------------------|
D|-0---0---0---0---2---0---0---0---0---0---0---------------------|
A|-----------------2---0---2-------------------------------------|
E|-----------------0---2---3-------------------------------------| 
  Dsus D   D   D   Em D/F# G  Dsus D   D   D
e|-3---2---0---2---3---0---3---3---2---0---2---------------------|
B|-3---3---3---3---3---3---3---3---3---3---3---------------------|
G|-2---2---2---2---0---2---0---2---2---2---2---------------------|
D|-0---0---0---0---2---0---0---0---0---0---0---------------------|
A|-----------------2---0---2-------------------------------------|
E|-----------------0---2---3-------------------------------------| 
Pre-Chorus:
   Bm  A   G   Bm  A   G
e|-2---0---3---2---0---3-----------------------------------------|
B|-3---0---3---3---0---3-----------------------------------------|
G|-4---2---0---4---2---0-----------------------------------------|
D|-4---2---0---4---2---0-----------------------------------------|
A|-2---0---2---2---0---2-----------------------------------------|
E|---------3-----------3-----------------------------------------| 
Chorus:
   D  A/C# Bm  A   G   D  A/C# Bm  A   G
e|-2---0---2---0---3---2---0---2---0---3-------------------------|
B|-3---0---3---0---3---3---0---3---0---3-------------------------|
G|-2---2---4---2---0---2---2---4---2---0-------------------------|
D|-0---2---4---2---0---0---2---4---2---0-------------------------|
A|-----4---2---0---2-------4---2---0---2-------------------------|
E|-----------------3-------------------3-------------------------| 
Intro
Verse
Pre-Chorus
Chorus
Interlude:
   Bm  A   G  F#m  Bm  A   G  F#m
e|-2---0---3---2---2---0---3---2---------------------------------|
B|-3---0---3---2---3---0---3---2---------------------------------|
G|-4---2---0---2---4---2---0---2---------------------------------|
D|-4---2---0---4---4---2---0---4---------------------------------|
A|-2---0---2---4---2---0---2---4---------------------------------|
E|---------3---2-----------3---2---------------------------------| 
Bridge:
   Bm  A   G  F#m  Bm  A   G  F#m
e|-2---0---3---2---2---0---3---2---------------------------------|
B|-3---0---3---2---3---0---3---2---------------------------------|
G|-4---2---0---2---4---2---0---2---------------------------------|
D|-4---2---0---4---4---2---0---4---------------------------------|
A|-2---0---2---4---2---0---2---4---------------------------------|
E|---------3---2-----------3---2---------------------------------| 
   Bm  A   G  F#m  Bm  A   G  F#m  G
e|-2---0---3---2---2---0---3---2---3-----------------------------|
B|-3---0---3---2---3---0---3---2---3-----------------------------|
G|-4---2---0---2---4---2---0---2---0-----------------------------|
D|-4---2---0---4---4---2---0---4---0-----------------------------|
A|-2---0---2---4---2---0---2---4---2-----------------------------|
E|---------3---2-----------3---2---3-----------------------------| 
Chorus
Intro
| /  slide up
| \  slide down
| h  hammer-on
| p  pull-off
| ~  vibrato
| +  harmonic
| x  Mute note

Click HERE To Download PDF

2 comments:

fiona said...

amazing voice&guitar
well, i'm learning playing guitar now but i dont really know how to play better.how can u be such brilliant??
=]whatever, keep going on,and god bless you!+

dhyed said...

he is brilliant because he praise God as he sing. just put Jesus into your heart and strive further to be a God's Musician