Monday, September 24, 2007

Deeply In Love

A worship song by Hillsong. Speaks about how we who have the desire to love God, should express it not just in words but deeds as well. How are we to be deeply in love with God? Jesus gives us the answer in Matthew 22:37-38 when asked by an expert in the law on what the greatest commandment is. "Jesus replied: " 'Love the Lord your God with all your heart and with all your soul and with all your mind.' This is the first and greatest commandment."

We are therefore called to love God with our entire being, in our thoughts, actions, and words. Can we truly say that we are deeply in love with God? Then let our lives speak for themselves in every aspect of it.





-----------------------------------------------------------------
DEEPLY IN LOVE – Hillsong
-----------------------------------------------------------------
Tabbed by: Graham Choo
Email: da_tweens@yahoo.co.uk

Tuning: Standard

Intro:
   Em    C9      D         G  D/F#  D/B        C9  D
e|-----3-3---3---------2h3-3---3---------------3---3p2---2---2---|
B|-----3-3---3-------3-----3---3-----------3---3---3-----3---3---|
G|-----0-0---0-----2-------0---2---------0-----0---2---2---2-----|
D|---2---2-----2-0---------0---0-------0-------2---0-------------|
A|-------3-3-----------------------0h2---------3-----------------|
E|-0-----------------------3---2---------------------------------| 
   Em    C9      D         G  D/F#  D/B        C9  D
e|-----3-3---3---------2h3-3---3---------------3---3p2---2-------|
B|-----3-3---3-------3-----3---3-----------3---3---3-----3-------|
G|-----0-0---0-----2-------0---2---------0-----0---2---2---------|
D|---2---2-----2-0---------0---0-------0-------2---0-------------|
A|-------3-3-----------------------0h2---------3-----------------|
E|-0-----------------------3---2---------------------------------| 
Verse 1:
   Em    C9  D         G  D/F#  Em   C9      D
e|-----3-3---------2h3-3---3-------3-3---3---------2-------------|
B|-----3-3-------3-----3---3-------3-3---3-------3---------------|
G|-----0-0-----2-------0---2-------0-0---0-----2-----------------|
D|---2---2---0---------0---0-----2---2-2---2-0-------------------|
A|-------3---------------------------3---------------------------|
E|-0-------------------3---2---0---------------------------------| 
   Em    C9  D       Em  D   C9      D
e|-----3-3-------2h3-3---2---------3-------2---------------------|
B|-----3-3-------3---3---3---------3-----3-----------------------|
G|-----0-0-----2-----0---2-------0-----2-------------------------|
D|---2---2---0-------2---0-----2-----0---------------------------|
A|-------3-------------------3-----------------------------------|
E|-0-----------------0-------------------------------------------| 
Chorus 1:
   Em    C9  D         G  D/F#  Em   C9  D     G  D/F#
e|-----3-3---------2h3-3---3-------3-3-------2-3---3-------------|
B|-----3-3-------3-----3---3-------3-3-------3-3---3-------------|
G|-----0-0-----2-------0---2-------0-0-----2---0---2-------------|
D|---2---2---0---------0---0-----2---2---0-----0---0-------------|
A|-------3---------------------------3---------------------------|
E|-0-------------------3---2---0---------------3---2-------------| 
   Em    C9  D       Em  D   C9      D
e|-----3-3-------2h3-3---2---------3-------2---------------------|
B|-----3-3-------3---3---3---------3-----3-----------------------|
G|-----0-0-----2-----0---2-------0-----2-------------------------|
D|---2---2---0-------2---0-----2-----0---------------------------|
A|-------3-------------------3-----------------------------------|
E|-0-----------------0-------------------------------------------| 
Interlude:
   Em    C9      D         G  D/F# Em    C9  D
e|-----3-3---3---------2h3-3---3-------3-3---2-------------------|
B|-----3-3---3-------3-----3---3-------3-3---3-------------------|
G|-----0-0---0-----2-------0---2-------0-0---2-------------------|
D|---2---2-----2-0---------0---0-----2---2---0-------------------|
A|-------3-3-----------------------------3-----------------------|
E|-0-----------------------3---2---0-----------------------------| 
Verse 2
Chorus 2:
   Em  C9 Dsus G  D/F# Em  C9 Dsus G  D/F#
e|-3---3---3---3---3---3---3---3---3---3-------------------------|
B|-3---3---3---3---3---3---3---3---3---3-------------------------|
G|-0---0---2---0---2---0---0---2---0---2-------------------------|
D|-2---2---0---0---0---2---2---0---0---0-------------------------|
A|-2---3-------2---0---2---3-------2---0-------------------------|
E|-0-----------3---2---0-----------3---2-------------------------| 
   Em  C9 Dsus Em Dsus C9 Dsus
e|-3---3---3---3---3---3---3-------------------------------------|
B|-3---3---3---3---3---0---3-------------------------------------|
G|-0---0---2---0---2---0---2-------------------------------------|
D|-2---2---0---2---0---2---0-------------------------------------|
A|-2---3-------2-------3-----------------------------------------|
E|-0-----------0-------------------------------------------------|
Chorus 2
Bridge:
   C9  G  D/G  C9  G  D/G  C9  G  Dsus
e|-3---3---2---3---3---2---3---3---3-----------------------------|
B|-3---3---3---3---3---3---3---3---3-----------------------------|
G|-0---0---0---0---0---0---0---0---2-----------------------------|
D|-2---0---0---2---0---0---2---0---0-----------------------------|
A|-3---2---0---3---2---0---3---2---------------------------------|
E|-----3---3-------3---3-------3---------------------------------| 
Chorus 2 2x
Interlude
| /  slide up
| \  slide down
| h  hammer-on
| p  pull-off
| ~  vibrato
| +  harmonic
| x  Mute note

Click HERE To Download PDF

7 comments:

Anonymous said...

thats awesome man!
amazing song ... is there any chance you could tab out what electric guitar is doing there? :)

Graham Choo said...

Hey, are you talking about the electric guitar from the original song itself? cause there's not electric guitar in this video, just an acoustic :)

Anonymous said...

hey, yeah that what i meant - from the original :)

i think it starts after first chorus and goes something like that:
G: 7h9-s12-9--11-12-s14-12--7h9-s12-7

and then on second verse i think its:
E-----17p15-15p14-14p12-
B--15-------------------

but not sure :)
and then there are bunch of other cool stuff

Graham Choo said...

Hey ok, I'll put it under my list of songs to tab, but might I refer you to another blog which deals more with electric guitar riffs. It's guitarpraise.blogspot.com.

Check it out, and you might find some, if not all the songs you're looking for! God bless :)

silverLIly said...

this is one of my favorite songs..
thanks for the taBs..
God bless you!!

Mae said...

Definitely one of my favorite songs! I'm a beginning guitarist and I appreciate you writing out the tabs so well!

JN said...

What impacts me most on the song is the line.. "How do I show You it's true?" God didn't just tell us He loves us. He showed it at the cross and He's asking us the same, "Show Me your love." I remember John 21 where He repeatedly asked Peter if he loves Him and then He revealed that it's through loving people that we show Him we love Him and loving people is shown by taking care of them not just physically but most importantly, spiritually. :)

Thanks for posting the tab.