Sunday, September 16, 2007

I'm Forever Yours

I'm Forever YoursA worship song by Planet Shakers. In Isaiah 6:8, the prophet Isaiah says in his vision, "Then I heard the voice of the Lord saying, 'Whom shall I send? And who will go for us?' And I said, 'Here am I. Send me!'" Isaiah stood up and answered God's call. He was willing to go forth to bring God's message to the Jewish nation, even if it was one of judgment in Isaiah 6. However, the message doesn't end there because of their sin. The rest of Isaiah continues with the Good News of the promised Messiah who is to come (7:10-16), who will suffer for the sins of man, but in the process atone for our sins (53:10-12).

In essence, that is the Good News that we are to proclaim. But can we like Isaiah, say "Here am I. Send me!"? Lord, we are forever yours, a chosen people, a royal priesthood, a holy nation, a people belonging to God, that we may declare the praises of him who called us out of darkness into his wonderful light. (1 Peter 2:9). Help us to obey your commandments.





-----------------------------------------------------------------
I’M FOREVER YOURS – Planet Shakers
-----------------------------------------------------------------
Tabbed by: Graham Choo
Email: da_tweens@yahoo.co.uk

Tuning: Standard (Capo 2nd Fret)
Intro:
   E E/Eb C#m  B   A   A
e|-0---0---0---0---0---0-----------------------------------------|
B|-0---0---0---0---0---0-----------------------------------------|
G|-9---8---6---4---2---2-----------------------------------------|
D|-9---9---6---4---2---2-----------------------------------------|
A|-7---6---4---2---0---0-----------------------------------------|
E|-0---0---------------------------------------------------------| 
Verse 1:
   A   E   A   E   B  G#m  A   D   A   B
e|-0---0---0---0---0---0---0---2---0---0-------------------------|
B|-0---0---0---0---0---0---0---3---0---0-------------------------|
G|-2---1---2---1---4---4---2---2---2---4-------------------------|
D|-2---2---2---2---4---6---2---0---2---4-------------------------|
A|-0---2---0---2---2---6---0-------0---2-------------------------|
E|-----0-------0-------------------------------------------------| 
Verse 2
Chorus:
   E E/Eb C#m  B   A  G#m F#m  B   E E/Eb C#m  B   A   B
e|-0---0---0---0---0---0---0---0---0---0---0---0---0---0---------|
B|-0---0---0---0---0---0---0---0---0---0---0---0---0---0---------|
G|-9---8---6---4---2---4---2---4---9---8---6---4---2---4---------|
D|-9---9---6---4---2---6---4---4---9---9---6---4---2---4---------|
A|-7---6---4---2---0---6---4---2---7---6---4---2---0---2---------|
E|-0---0---------------------------0---0-------------------------| 
Intro
Verse 2
Chorus 2x
Prelude:
   E E/Eb C#m  B   A   B
e|-0---0---0---0---0---0-----------------------------------------|
B|-0---0---0---0---0---0-----------------------------------------|
G|-9---8---6---4---2---4-----------------------------------------|
D|-9---9---6---4---2---4-----------------------------------------|
A|-7---6---4---2---0---2-----------------------------------------|
E|-0---0---------------------------------------------------------| 
Bridge:
   E E/Eb C#m  B   A   B   E E/Eb C#m  B   A   B
e|-0---0---0---0---0---0---0---0---0---0---0---0-----------------|
B|-0---0---0---0---0---0---0---0---0---0---0---0-----------------|
G|-9---8---6---4---2---4---9---8---6---4---2---4-----------------|
D|-9---9---6---4---2---4---9---9---6---4---2---4-----------------|
A|-7---6---4---2---0---2---7---6---4---2---0---2-----------------|
E|-0---0-------------------0---0---------------------------------| 
Bridge
Chorus
Bridge
   A   E
e|-0---0---------------------------------------------------------|
B|-0---0---------------------------------------------------------|
G|-2---1---------------------------------------------------------|
D|-2---2---------------------------------------------------------|
A|-0---2---------------------------------------------------------|
E|-----0---------------------------------------------------------| 
| /  slide up
| \  slide down
| h  hammer-on
| p  pull-off
| ~  vibrato
| +  harmonic
| x  Mute note

Click HERE To Download PDF

4 comments:

miko said...

keep working with God.. Godspeed..

Anonymous said...

your good., godbless! add me up (FACEBOOK) gelsabile@yahoo.com

Anonymous said...

The charming answer

Anonymous said...

Thank you... thank you... thank you... XD God speed!