Thursday, October 4, 2007

Yesterday, Today And Forever

Yesterday, Today And ForeverA worship song by Vicky Beeching, who's one of the hosts for New Song Cafe by the way. Speaks of a God who never changes even throughout the ages from the beginning of time, until now and forevermore. In Malachi 3:6-7, God says, " I the LORD do not change. So you, O descendants of Jacob, are not destroyed. Ever since the time of your forefathers you have turned away from my decrees and have not kept them. Return to me, and I will return to you."

What implications does this have for us then? If the Lord never changes, then He is indeed our firm foundation. His love for us remains ever passionate since Adam's time until ours, which resulted in Him sending His son to die for our sins, that all who believe would be saved (John 3:16). His mercy endures forever in that He has not destroyed us because of our sin, but His love has given us a way out, salvation through His Son. He is faithful to keep His promises and covenants given us, especially the New Covenant found in Christ Jesus where God will write his laws on our hearts and minds, walk with us in a personal relationship, teach us how to know Him through the Holy Spirit, and forgive our sins and remember them no more (Hebrew 8:10-12).

Thank you God for being our firm foundation. Yahweh we will trust in You.





---------------------------------------------------------------------------
YESTERDAY, TODAY AND FOREVER – Vicky Beeching
---------------------------------------------------------------------------
Tabbed by: Graham Choo
Email: da_tweens@yahoo.co.uk

Tuning: Standard (Capo 3rd Fret)
Intro:
  D/F# G   Bm  A  D/F# G   Bm  A
e|---------------------------------------------------------------|
B|-0---0---0---0---0---0---0---0---------------------------------|
G|-2---4---7---6---2---4---7---6---------------------------------|
D|-0---0---0---0---0---0---0---0---------------------------------|
A|-0---0---0---0---0---0---0---0---------------------------------|
E|-2---3---7---5---2---3---7---5---------------------------------| 
Intro
Verse 1:
   G    Bm   A/B  G    Bm   A/B  G    Bm   A/B  G    Bm   A/B
e|---------------------------------------------------------------|
B|---------------------------------------------------------------|
G|-4x---7x---6x---4x---7x---6x---4x---7x---6x---4x---7x---6x-----|
D|-0x---0x---0x---0x---0x---0x---0x---0x---0x---0x---0x---0x-----|
A|-0x---0x---0x---0x---0x---0x---0x---0x---0x---0x---0x---0x-----|
E|-3x---7x---7x---3x---7x---7x---3x---7x---7x---3x---7x---7x-----| 
Pre-Chorus:
   Em D/F#   D/F# D/G D/B Asus
e|-3---0---0---0---0---0---0-------------------------------------|
B|-3---3---2---3---3---3---3-------------------------------------|
G|-0---2---2---2---2---2---2-------------------------------------|
D|-2---0---0---0---0---0---2-------------------------------------|
A|-2---0---0---0---0---2---0-------------------------------------|
E|-0---2---2---2---3---------------------------------------------| 
Chorus:
 D/F# D/G D/B  A D/F# D/G D/B  A D/F# D/G D/B Asus Em  G  Asus
e|-0---0---0---0---0---0---0---0---0---0---0---0---3---3---0-----|
B|-3---3---3---3---3---3---3---3---3---3---3---3---3---3---3-----|
G|-2---2---2---2---2---2---2---2---2---2---2---2---0---0---2-----|
D|-0---0---0---2---0---0---0---2---0---0---0---2---2---0---2-----|
A|-0---0---2---0---0---0---2---0---0---0---2---0---2---2---0-----|
E|-2---3-----------2---3-----------2---3-----------0---3---------| 
Intro
Verse 2
Pre-Chorus
Chorus 2x
Bridge:
  D/G  D/F# D/G  D/F# D/G  D/F# D/G  D/F# D/G  D/F# Asus
e|-0----0----0----0----0----0----0----0----0----0----0-----------|
B|-3----3----3----3----3----3----3----3----3----3----3-----------|
G|-2----2----2----2----2----2----2----2----2----2----2-----------|
D|-0----0----0----0----0----0----0----0----0----0----2-----------|
A|-0----0----0----0----0----0----0----0----0----0----0-----------|
E|-3----2----3----2----3----2----3----2----3----2----------------| 
Chorus
Intro 2x 
| /  slide up
| \  slide down
| h  hammer-on
| p  pull-off
| ~  vibrato
| +  harmonic
| x  Mute note

Click HERE To Download PDF

2 comments:

Lukas said...

You`ve done an excellent job! God bless you!

Anonymous said...

Lately I've joined the worship team at my church (Calvary Chapel Aurora) and this is one song I felt God has put on my heart to pray but I hadn't have the to look up lyrics and chords. But when I did have time all I could find was his YouTube video of Daniel Choo singing it until today so thank you for having this page so I can learn to praise God with this song and many more. :)