Sunday, October 7, 2007

Beautiful Saviour

Beautiful SaviourA worship song by Planet Shakers. Reminds me of the passage in Philippians 2:6-11 where Paul exhorts the church to imitate Christ's humility. Jesus, "who being in very nature God, did not consider equality with God something to be grasped, but made himself nothing, taking the very nature of a servant, being made in human likeness. And being found in appearance as a man, he humbled himself and became obedient to death— even death on a cross! Therefore God exalted him to the highest place and gave him the name that is above every name, that at the name of Jesus every knee should bow, in heaven and on earth and under the earth, and every tongue confess that Jesus Christ is Lord, to the glory of God the Father."

Indeed, Jesus' name is above all others because of what He has done for us - His sacrifice of His godly status and life on the cross. Therefore all creation should worship and proclaim that Jesus Christ is Lord. He is our beautiful saviour, and he deserves our all because of what He has done for us. Thank you Jesus, we love You.





-----------------------------------------------------------------
BEAUTIFUL SAVIOUR – Planet Shakers
-----------------------------------------------------------------
Tabbed by: Graham Choo
Email: da_tweens@yahoo.co.uk

Tuning: Standard
Intro:
   A A/G# F#m  E   D  A/C# Bm
e|-0-------0---0---0---0---2-----------------------------------------|
B|-0-------0---0---3---0---3-----------------------------------------|
G|-6---6---2---1---2---2---4-----------------------------------------|
D|-7---7---4---2---0---0---4-----------------------------------------|
A|-7---7---4---2-------4---2-----------------------------------------|
E|-5---4-------0-----------------------------------------------------| 
Verse:
   A A/G# F#m  E   D  A/C# Bm
e|-0-------0---0---0---0---2-----------------------------------------|
B|-0-------0---0---3---0---3-----------------------------------------|
G|-6---6---2---1---2---2---4-----------------------------------------|
D|-7---7---4---2---0---0---4-----------------------------------------|
A|-7---7---4---2-------4---2-----------------------------------------|
E|-5---4-------0-----------------------------------------------------| 
Verse
Pre-Chorus:
   E  C#m  D   E  C#m  D   E
e|-0---4---0---0---4---0---0-----------------------------------------|
B|-0---5---3---0---5---3---0-----------------------------------------|
G|-1---6---2---1---6---2---1-----------------------------------------|
D|-2---6---0---2---6---0---2-----------------------------------------|
A|-2---4-------2---4-------2-----------------------------------------|
E|-0-----------0-----------0-----------------------------------------| 
Chorus:
   A  F#m  E   D  A/C# Bm F#m  E   A  F#m  E   D   Bm  D  F#m  E   A
e|-0---0---0---0---0---2---0---0---0---0---0---0---2---0---0---0---0-|
B|-0---0---0---3---0---3---0---0---0---0---0---3---3---3---0---0---0-|
G|-2---2---1---2---2---4---2---1---2---2---1---2---4---2---2---1---2-|
D|-2---4---2---0---0---4---4---2---2---4---2---0---4---0---4---2---2-|
A|-0---4---2-------4---2---4---2---0---4---2-------2-------4---2---0-|
E|---------0-------------------0-----------0-------------------0-----| 
Verse
Pre-Chorus
Chorus
Bridge:
   A  F#m  D   Bm  E   A  F#m  D   Bm  E
e|-0---0---0---2---0---0---0---0---2---0-----------------------------|
B|-0---0---3---3---0---0---0---3---3---0-----------------------------|
G|-2---2---2---4---1---2---2---2---4---1-----------------------------|
D|-2---4---0---4---2---2---4---0---4---2-----------------------------|
A|-0---4-------2---2---0---4-------2---2-----------------------------|
E|-----------------0-------------------0-----------------------------| 
Chorus
| /  slide up
| \  slide down
| h  hammer-on
| p  pull-off
| ~  vibrato
| +  harmonic
| x  Mute note

Click HERE To Download PDF

7 comments:

Griff said...

Hey man...I just came across your site as I was browsing through your YouTube videos. You have some great stuff on here. Keep up the good work!

PC said...

Found it! Thanks.

Tumurbaatar said...
This comment has been removed by the author.
Anonymous said...

hi, new to the site, thanks.

Anonymous said...

many thanks! this site has helped me a lot.
friendly greetings from Germany

Anonymous said...

Bro , thanks men for this stuff i really love it good site and more power Godbless :)

Anonymous said...

hey can u do an instruction video for like a fire planet shakers