Saturday, November 10, 2007

My Saviour, My God

Anything Worth SayingA worship song by Aaron Shust. In Philippians 2:5-11, Paul exhorts the Philippians to imitate Christ's humility. "Your attitude should be the same as that of Christ Jesus: Who, being in very nature God, did not consider equality with God something to be grasped, but made himself nothing, taking the very nature of a servant, being made in human likeness. And being found in appearance as a man, he humbled himself and became obedient to death— even death on a cross! Therefore God exalted him to the highest place and gave him the name that is above every name, that at the name of Jesus every knee should bow, in heaven and on earth and under the earth, and every tongue confess that Jesus Christ is Lord, to the glory of God the Father."

Jesus Christ is indeed our Lord and saviour. His humility, obedience, and great sacrifice on the cross for our sins warrants our praises and worship, and our calling Him Lord and saviour. My saviour loves, my saviour lives, my saviour's always there for me. My God He was, my God He is, my God He's always gonna be.





-----------------------------------------------------------------
MY SAVIOUR, MY GOD – Aaron Shust
-----------------------------------------------------------------
Tabbed by: Graham Choo
Email: da_tweens@yahoo.co.uk

Tuning: Standard (Capo 5th Fret)
Intro:
     G                             Em
e|-----------------------3---3-------------------------0---0-------|
B|-3---3-3-3---3-3---3---3---3---3---3-3-3---3-3---3---0---0-------|
G|-2h4-4-4-4p2-2-2p0-0---0---0---2h4-4-4-4p2-2-2p0-0---0---0-------|
D|-0---0-0-0---0-0---0---0---0---0---0-0-0---0-0---0---2---2-------|
A|---------------------2---2---2---------------------2---2---2-----|
E|---------------------3---3---3---------------------0---0---0-----|  
   D                     G
e|-----------------------0---0---0-------------3-3-----------------|
B|-----------------------3---3---3-3-3---3-----3-3-----------------|
G|---------------------2-2-2-2-2-2-4-4p2-2p0---0-0-----------------|
D|-2---2-2-2---2-2---2-0---0---0---0-0---0-----0-0-----------------|
A|-2h3-3-3-3p2-2-2p0-0-----------------------2---2-----------------|
E|-0---0-0-0---0-0---0-----------------------3---3-----------------|  
Verse 1:
   G               Em              D               G
e|---3---3---3---3---0---0---0---0---0---0---0---0---3---3-3-------|
B|---3---3---3---3---0---0---0---0---3---3---3---3---3---3-3-------|
G|---0---0---0---0---0---0---0---0-2-2-2-2-2-2-2-2---0---0-0-------|
D|---0---0---0---0---2---2---2---2-0---0---0---0-----0---0-0-------|
A|-2---2---2---2---2---2---2---2-------------------2---2---2-------|
E|-3---3---3---3---0---0---0---0-------------------3---3---3-------|  
Verse 2:
   G               Em              D               G
e|---3---3---3---3---0---0---0---0---0---0---0---0---3---3---3---3-|
B|---3---3---3---3---0---0---0---0---3---3---3---3---3---3---3---3-|
G|---0---0---0---0---0---0---0---0-2-2-2-2-2-2-2-2---0---0---0---3-|
D|---0---0---0---0---2---2---2---2-0---0---0---0-----0---0---0---0-|
A|-2---2---2---2---2---2---2---2-------------------2---2---2---2---|
E|-3---3---3---3---0---0---0---0-------------------3---3---3---3---| 
Pre-Chorus 1:
   C9              G               D               G
e|---3---3---3---3---3---3---3---3---0---0---0---0---3-3-----------|
B|---3---3---3---3---3---3---3---3---3---3---3---3---3-3-----------|
G|---0---0---0---0---0---0---0---0-2-2-2-2-2-2-2-2---0-0-----------|
D|-0-0-0-0-0-0-0-0---0---0---0---0-0---0---0---0-----0-0-----------|
A|-3---3---3---3---2---2---2---2-------------------2---2-----------|
E|-----------------3---3---3---3-------------------3---3-----------|  
Chorus 1:
   Em  C9  G  Dsus Em  C9  G  Dsus Em  C9  G  Dsus Em  C9  G  Dsus
e|-0---3---3---3---0---3---3---3---0---3---3---3---0---3---3---3---|
B|-0---3---3---3---0---3---3---3---0---3---3---3---0---3---3---3---|
G|-0---0---0---2---0---0---0---2---0---0---0---2---0---0---0---2---|
D|-2---0---0---0---2---0---0---0---2---0---0---0---2---0---0---0---|
A|-2---3---2-------2---3---2-------2---3---2-------2---3---2-------|
E|-0-------3-------0-------3-------0-------3-------0-------3-------|  
Verse 2 
Pre-Chorus 2:
   C9              G               D               G
e|---3---3---3---3---3---3---3---3---0---0---0---0-3-3-3-3-3-------|
B|---3---3---3---3---3---3---3---3---3---3---3---3-3-3-3-3-3-------|
G|---0---0---0---0---0---0---0---0-2-2-2-2-2-2-2-2-0-0-0-0-0-------|
D|-0-0-0-0-0-0-0-0---0---0---0---0-0---0---0---0---0-0-0-0-0-------|
A|-3---3---3---3---2---2---2---2-------------------2-2-2-2-2-------|
E|-----------------3---3---3---3-------------------3-3-3-3-3-------|  
Chorus 1 
Interlude:
       G                             Em
e|-----------------------3---3-------------------------0---0-------|
B|-3---3-3-3---3-3---3---3---3---3---3-3-3---3-3---3---0---0-------|
G|-2h4-4-4-4p2-2-2p0-0---0---0---2h4-4-4-4p2-2-2p0-0---0---0-------|
D|-0---0-0-0---0-0---0---0---0---0---0-0-0---0-0---0---2---2-------|
A|---------------------2---2---2---------------------2---2---2-----|
E|---------------------3---3---3---------------------0---0---0-----|  
   D                     G
e|-----------------------0---0---0-----------3-3-3-3-3-------------|
B|-----------------------3---3---3-3-3---3---3-3-3-3-3-------------|
G|---------------------2-2-2-2-2-2-4-4p2-2p0-0-0-0-0-0-------------|
D|-2---2-2-2---2-2---2-0---0---0---0-0---0---0-0-0-0-0-------------|
A|-2h3-3-3-3p2-2-2p0-0-----------------------2-2-2-2-2-------------|
E|-0---0-0-0---0-0---0-----------------------3-3-3-3-3-------------|  
Chorus 2:
   Em  C9  G  Dsus Em  C9  G  Dsus Em D/F# C9 Dsus
e|-0---3---3---3---0---3---3---3---0---0---3---3-------------------|
B|-0---3---3---3---0---3---3---3---0---3---3---3-------------------|
G|-0---0---0---2---0---0---0---2---0---2---0---2-------------------|
D|-2---0---0---0---2---0---0---0---2---0---0---0-------------------|
A|-2---3---2-------2---3---2-------2---0---3-----------------------|
E|-0-------3-------0-------3-------0---2---------------------------|  
Chorus 2
   C9
e|-3---------------------------------------------------------------|
B|-3---------------------------------------------------------------|
G|-0---------------------------------------------------------------|
D|-0---------------------------------------------------------------|
A|-3---------------------------------------------------------------|
E|-----------------------------------------------------------------|  
| /  slide up
| \  slide down
| h  hammer-on
| p  pull-off
| ~  vibrato
| +  harmonic
| x  Mute note 

Click HERE To Download PDF

5 comments:

Keegan said...

um...i feel like the tab for the intro is a little off.

i feel like the hammer on's should move up two frets instead of one.

but i am less experienced then you guys so i might be wrong. but it just seems to sound better.

Graham Choo said...

Hey Keegan, thanks so much for alerting me to the error. It's a typo in my tabs, and I tend to make some of them. Sorry about that. Have changed it so I hope it's ok now :P

Anonymous said...

best website ever (period) i still havent gone trough your whole website but man, you put time into this, you basically have a ministry here. and if you have hillsong, oh my god, no more googling songs ever anymore thanks man you saved my life.

Christine Emmick said...

Graham, you have put together some amazing instruction. Do you do this on your own or do you collaboarate with your brothers/ relatives?

God Bless your efforts. :)

Graham Choo said...

Hi Christine,
Basically my twin brother and I work together on the blog. He (Daniel) plays all the Christian songs and puts up the videos, while I (Graham) run the blog and put up a few of my own instrumentals.
We do some duos occasionally :)