Saturday, November 3, 2007

Till I See You

Til I See YouA worship song by Hillsong. In Mark 14:35-36, it reads about Jesus, "Going a little farther, he fell to the ground and prayed that if possible the hour might pass from him. 'Abba, Father,' he said, 'everything is possible for you. Take this cup from me. Yet not what I will, but what you will.'

Jesus knew the gravity of His situation - having to die for the sins of man. He struggled with it greatly, but still in obedience, submitted to the will of the Father. Have we ever wondered what would have happened if Jesus did not submit to the Father's will, and instead chose His own life over the cross? It was His great love for us that enabled Him to submit. It was love for us that kept Him on the cross. Indeed, the greatest love that anyone could ever know, was that the thought of us kept Him focused on what had to be done in order to save our souls. And thus, we will respond by living to love You and bring You praise, till we see You again. Amen.





-----------------------------------------------------------------
TILL I SEE YOU – Hillsong
-----------------------------------------------------------------
Tabbed by: Graham Choo
Email: da_tweens@yahoo.co.uk

Tuning: Standard
Verse:
   A   B  C#m  A   B  C#m  A   B  C#m  A
e|-0---0---0---0---0---0---0---0---0---0-------------------------|
B|-0---0---0---0---0---0---0---0---0---0-------------------------|
G|-2---4---6---2---4---6---2---4---6---2-------------------------|
D|-2---4---6---2---4---6---2---4---6---2-------------------------|
A|-0---2---4---0---2---4---0---2---4---0-------------------------|
E|---------------------------------------------------------------| 
Verse
Chorus 1:
   E E/Eb C#m G#m  A   B  C#m  B
e|-0---0---0---0---0---0---0---0---------------------------------|
B|-0---0---0---0---0---0---0---0---------------------------------|
G|-9---8---6---4---2---4---6---4---------------------------------|
D|-9---9---6---6---2---4---6---4---------------------------------|
A|-7---6---4---6---0---2---4---2---------------------------------|
E|---------------------------------------------------------------| 
Verse
Chorus 2:
   E E/Eb C#m G#m  A   B  C#m  A   B
e|-0---0---0---0---0---0---0---0---0-----------------------------|
B|-0---0---0---0---0---0---0---0---0-----------------------------|
G|-9---8---6---4---2---4---6---2---4-----------------------------|
D|-9---9---6---6---2---4---6---2---4-----------------------------|
A|-7---6---4---6---0---2---4---0---2-----------------------------|
E|---------------------------------------------------------------| 
   E E/Eb C#m G#m  A   B  C#m  B
e|-0---0---0---0---0---0---0---0---------------------------------|
B|-0---0---0---0---0---0---0---0---------------------------------|
G|-9---8---6---4---2---4---6---4---------------------------------|
D|-9---9---6---6---2---4---6---4---------------------------------|
A|-7---6---4---6---0---2---4---2---------------------------------|
E|---------------------------------------------------------------| 
Bridge:
   A   E   B  C#m  A   E   B  C#m  A   E   B  C#m  A   B
e|-0---0---0---0---0---0---0---0---0---0---0---0---0---0---------|
B|-0---0---0---0---0---0---0---0---0---0---0---0---0---0---------|
G|-2---1---4---6---2---1---4---6---2---1---4---6---2---4---------|
D|-2---2---4---6---2---2---4---6---2---2---4---6---2---4---------|
A|-0---2---2---4---0---2---2---4---0---2---2---4---0---2---------|
E|-----0---------------0---------------0-------------------------|

   A   E   B  C#m  A   E   B  C#m  A   E   B  C#m  A
e|-0---0---0---0---0---0---0---0---0---0---0---0---0-------------|
B|-0---0---0---0---0---0---0---0---0---0---0---0---0-------------|
G|-2---1---4---6---2---1---4---6---2---1---4---6---2-------------|
D|-2---2---4---6---2---2---4---6---2---2---4---6---2-------------|
A|-0---2---2---4---0---2---2---4---0---2---2---4---0-------------|
E|-----0---------------0---------------0-------------------------| 
Verse
| /  slide up
| \  slide down
| h  hammer-on
| p  pull-off
| ~  vibrato
| +  harmonic
| x  Mute note

Click HERE To Download PDF

4 comments:

Brady said...

Keep playing man, and living for Jesus!

Anonymous said...

in the chorus instead of e/eb can use b/eb

Anonymous said...

hi you play very well...I would like to ask a favor...please play this song.... Hillsong United
Great Is The Lord ....it's the link

http://www.esnips.com/doc/65390667-f415-40c7-b316-751aa34d54e2/Great-is-the-Lord--Hillsong
....thank you

Anonymous said...

thanks alot bro, you helped alot, god bless ae