Friday, December 14, 2007

Adonai

AdonaiA worship song by Hillsong. In Psalm 117:1-3, the psalmist says, "Praise the LORD, all you nations; extol him, all you peoples. For great is his love toward us, and the faithfulness of the LORD endures forever. Praise the LORD."

Adonai is a Hebrew name for Lord. Indeed because of His great love and faithfulness toward us, we are to praise and worship Adonai. The psalmist in the Old Testament having yet to experience Christ, knew that Adonai is to be praised. How much more praises then, should we give unto Adonai, who has sent His son Jesus down for us. Oh I love you always. Ever I will sing, only You will I adore. Glorify my Lord, only You will I serve.





-----------------------------------------------------------------
ADONAI – Hillsong
-----------------------------------------------------------------
Tabbed by: Graham Choo
Email: da_tweens@yahoo.co.uk

Tuning: Standard
Intro:
  G#m  B   E  C#m  B   E  C#m G#m
e|---------------------------------------------------------------|
B|---------------------------------------------------------------|
G|-----4x------6x--4x------6x------------------------------------|
D|-6x--4x--2x--6x--4x--2x--6x--6x--------------------------------|
A|-6x--2x--2x--4x--2x--2x--4x--6x--------------------------------|
E|-4x------0x----------0x------4x--------------------------------| 
Verse:
   B Bmaj7 E   B Bmaj7 E   F#
e|---------------------------------------------------------------|
B|---------------------------------------------------------------|
G|-4x--3x------4x--3x--------------------------------------------|
D|-4x--4x--2x--4x--4x--2x--4x------------------------------------|
A|-2x--2x--2x--2x--2x--2x--4x------------------------------------|
E|---------0x----------0x--2x------------------------------------| 
Pre-Chorus:
  G#m C#/F E   F# G#m C#/F E
e|---------------------------------------------------------------|
B|---------------------------------------------------------------|
G|---------------------------------------------------------------|
D|-6x--3x--2x--4x--6x--3x--2x------------------------------------|
A|-6x--4x--2x--4x--6x--4x--2x------------------------------------|
E|-4x--1x--0x--2x--4x--1x--0x------------------------------------| 
Chorus:
   B  B/Eb E   F#   B  C#m  E   F#
e|---------------------------------------------------------------|
B|---------------------------------------------------------------|
G|-4x--8x--9x--11x--4x--6x--9x--11x------------------------------|
D|-4x--9x--9x--11x--4x--6x--9x--11x------------------------------|
A|-2x--6x--7x--9x---2x--4x--7x--9x-------------------------------|
E|---------------------------------------------------------------| 
  G#m F#/Bb B  E   F# G#m F#/Bb B  E   F#
e|---------------------------------------------------------------|
B|---------------------------------------------------------------|
G|-----3x--4x--------------3x--4x------3-------------------------|
D|-6x--4x--4x--2x--4x--6x--4x--4x--2x--4-------------------------|
A|-6x--1x--2x--2x--4x--6x--1x--2x--2x--4-------------------------|
E|-4x----------0x--2x--4x----------0x--2-------------------------|
Interlude:
   B  B/Eb E   F#   B  B/Eb E   F#
e|---------------------------------------------------------------|
B|---------------------------------------------------------------|
G|-4x--8x--9x--11x--4x--8x--9x--11x------------------------------|
D|-4x--9x--9x--11x--4x--9x--9x--11x------------------------------|
A|-2x--6x--7x--9x---2x--6x--7x--9x-------------------------------|
E|---------------------------------------------------------------| 
Verse
Pre-Chorus
Chorus
Intro
Bridge:
  B/Eb E   F#  G#m B/Eb E   F#  G#m
e|---------------------------------------------------------------|
B|---------------------------------------------------------------|
G|-8x--9x--11x------8x--9x--11x----------------------------------|
D|-9x--9x--11x--6x--9x--9x--11x--6x------------------------------|
A|-6x--7x--9x---6x--6x--7x--9x---6x------------------------------|
E|--------------4x---------------4x------------------------------| 
Bridge
Chorus
Interlude
| /  slide up
| \  slide down
| h  hammer-on
| p  pull-off
| ~  vibrato
| +  harmonic
| x  Mute note

Click HERE To Download PDF

5 comments:

o_o said...

no offense or anything, but why so much hillsong?

Graham Choo said...

Hahah, well we are influenced quite heavily by Hillsong's worship songs in Singapore. They've got really good tunes and lyrics too :)

mj said...

have you heard songs of lakewood?

Graham Choo said...

Hey mj, I haven't heard of any of their songs before. But I just looked them up over YouTube, and they're good! They play the Gospel genre though, which is quite hard to play and sing on the acoustic

Gon said...

thanks man :)) really I just hoined Youth For Christ and we sang Hillsong's songs for our worship but are there any more songs like The Time Has come or inside out? Great forever tab btw