Thursday, December 20, 2007

Voice Of Truth

Voice Of TruthA worship song by Casting Crowns. The lyrics speak of two famous stories in the Bible. The first, of Peter when he and the disciples saw Jesus walking on the water toward their boat. The disciples thought that He was a ghost and were afraid, but Jesus assured them it was Him. Peter then called out to Jesus and walked toward Him on the water. His faith wavered however, when he saw the wind, and he started to sink. Jesus saved him (Matthew 14:22 - 32)

The second story is of David and Goliath - of how a young Israelite defeats the giant with his sling and stone. Goliath a Philistine, defies Israel's army and mocks them and their God. David, only a young shepherd boy, stands up for God and accepts Goliath's challenge. "David said to the Philistine, 'You come against me with sword and spear and javelin, but I come against you in the name of the LORD Almighty, the God of the armies of Israel, whom you have defied.' (1 Samuel 17:45) And he goes on to slay the giant, winning a victory in the name of God.

In both instances, faith was required - for Peter to walk on water toward Jesus (although his faith wavered), and for David who against all odds, stood up for God to defeat Goliath. God calls us to have faith in Him whatever the circumstance. Will we choose to trust in Him? I will choose to listen and believe the voice of truth! It's all for your glory Lord!





-----------------------------------------------------------------
VOICE OF TRUTH – Casting Crowns
-----------------------------------------------------------------
Tabbed by: Graham Choo
Email: da_tweens@yahoo.co.uk

Tuning: Standard
Intro:
   E  C#m  A
e|-0---0---0-----------------------------------------------------|
B|-0---0---0-----------------------------------------------------|
G|-1---6---2-----------------------------------------------------|
D|-2---6---2-----------------------------------------------------|
A|-2---4---0-----------------------------------------------------|
E|-0-------------------------------------------------------------| 
Verse:
   E  C#m  A   D   A   E  C#m  A   D   A
e|-0---0---0---0---0---0---0---0---0---0-------------------------|
B|-0---0---0---3---0---0---0---0---3---0-------------------------|
G|-1---6---2---2---2---1---6---2---2---2-------------------------|
D|-2---6---2---0---2---2---6---2---0---2-------------------------|
A|-2---4---0-------0---2---4---0-------0-------------------------|
E|-0-------------------0-----------------------------------------| 
Pre-Chorus:
   B   A   E   B   A   E   B   A   A   B  C#m  A   B
e|-0---0---0---0---0---0---0---0---0---0---0---0---0-------------|
B|-0---0---0---0---0---0---0---0---0---0---0---0---0-------------|
G|-4---2---1---4---2---1---4---2---2---4---6---2---4-------------|
D|-4---2---2---4---2---2---4---2---2---4---6---2---4-------------|
A|-2---0---2---2---0---2---2---0---0---2---4---0---2-------------|
E|---------0-----------0-----------------------------------------| 
Chorus 1:
   E   B  C#m  A   E   B  C#m  A  C#m  A
e|-0---0---0---0---0---0---0---0---0---0-------------------------|
B|-0---0---0---0---0---0---0---0---0---0-------------------------|
G|-1---4---6---2---1---4---6---2---6---2-------------------------|
D|-2---4---6---2---2---4---6---2---6---2-------------------------|
A|-2---2---4---0---2---2---4---0---4---0-------------------------|
E|-0---------------0---------------------------------------------| 
Intro
Verse
Pre-Chorus
Chorus 1
Bridge:
   C   D   C   D   C   D  Am7  B
e|-0---0---0---0---0---0---0---0---------------------------------|
B|-1---3---1---3---1---3---1---0---------------------------------|
G|-0---0---0---0---0---0---0---4---------------------------------|
D|-2---4---2---4---2---4---2---4---------------------------------|
A|-3---5---3---5---3---5---0---2---------------------------------|
E|---------------------------------------------------------------| 
Chorus 2:
   E   B  C#m  A   E   B  C#m  A  C#m  A  C#m  A
e|-0---0---0---0---0---0---0---0---0---0---0---0-----------------|
B|-0---0---0---0---0---0---0---0---0---0---0---0-----------------|
G|-1---4---6---2---1---4---6---2---6---2---6---2-----------------|
D|-2---4---6---2---2---4---6---2---6---2---6---2-----------------|
A|-2---2---4---0---2---2---4---0---4---0---4---0-----------------|
E|-0---------------0---------------------------------------------| 
Intro
| /  slide up
| \  slide down
| h  hammer-on
| p  pull-off
| ~  vibrato
| +  harmonic
| x  Mute note

Click HERE To Download PDF

5 comments:

Anonymous said...

I love this song, abundant thanks!

Alvaris said...

Wow, you have a nice guitar technique and sound. The more important thing is, you have a serving heart for God! Haha my guitar is weak. It is nice to meet you here, and let us continue to serve for God!

DaveL said...

Wonderful arrangement Brother Daniel! Your gift of figuring out complex arrangements and great chord transitions is a tremendous inspiration to those of us not as gifted. Thank You!

Anonymous said...

hi praise God for your awesome talent...and thank to you your site is helping me a lot....in my music ministry....more power and God bless brother....

Jingwen said...

thank you guys so much for the generous work you have done!

God Bless you guys!