Saturday, December 29, 2007

Fire Fall Down

Fire Fall DownA worship song by Hillsong. In Romans 10:9-13, Paul writes, "That if you confess with your mouth, 'Jesus is Lord,' and believe in your heart that God raised him from the dead, you will be saved. For it is with your heart that you believe and are justified, and it is with your mouth that you confess and are saved. As the Scripture says, 'Anyone who trusts in him will never be put to shame.' For there is no difference between Jew and Gentile—the same Lord is Lord of all and richly blesses all who call on him, for, 'Everyone who calls on the name of the Lord will be saved.'"

Salvation is free for all who call on the name of Jesus, but it didn't come without a price. Jesus Christ died on the cross for our sins, and He was raised on the third day, and is now seated at the right hand of God. And all we need to receive His free gift of salvation is to confess and believe in our hearts that "Jesus is Lord"! And the passage goes on to say in v.14-15, that this beautiful message and gift of salvation needs to be heard by all. Who then shall go forth? Here am I, send me! These hands are yours, teach them to serve as You please.





-----------------------------------------------------------------
FIRE FALL DOWN – Hillsong
-----------------------------------------------------------------
Tabbed by: Graham Choo
Email: da_tweens@yahoo.co.uk

Tuning: Standard (Capo 2nd Fret)
Intro:
   E   A   E   A
e|-0---0---0---0-------------------------------------------------|
B|-0---0---0---0-------------------------------------------------|
G|-1---2---1---2-------------------------------------------------|
D|-2---2---2---2-------------------------------------------------|
A|-2---0---2---0-------------------------------------------------|
E|-0-------0-----------------------------------------------------| 
Chorus 1:
   E   A   E   A   E   A   E   A
e|-0---0---0---0---0---0---0---0---------------------------------|
B|-0---0---0---0---0---0---0---0---------------------------------|
G|-1---2---1---2---1---2---1---2---------------------------------|
D|-2---2---2---2---2---2---2---2---------------------------------|
A|-2---0---2---0---2---0---2---0---------------------------------|
E|-0-------0-------0-------0-------------------------------------| 
Intro
Verse:
   E   A   B   E
e|-0---0---0---0-------------------------------------------------|
B|-0---0---0---0-------------------------------------------------|
G|-1---2---4---1-------------------------------------------------|
D|-2---2---4---2-------------------------------------------------|
A|-2---0---2---2-------------------------------------------------|
E|-0-----------0-------------------------------------------------| 
Verse
Pre-Chorus:
   A   B   A   B
e|-0---0---0---0-------------------------------------------------|
B|-0---0---0---0-------------------------------------------------|
G|-2---4---2---4-------------------------------------------------|
D|-2---4---2---4-------------------------------------------------|
A|-0---2---0---2-------------------------------------------------|
E|---------------------------------------------------------------| 
Chorus 1
Intro
Verse
Pre-Chorus
Chorus 2:
   E   A   E   A   E   A  C#m  A
e|-0---0---0---0---0---0---0---0---------------------------------|
B|-0---0---0---0---0---0---0---0---------------------------------|
G|-1---2---1---2---1---2---6---2---------------------------------|
D|-2---2---2---2---2---2---6---2---------------------------------|
A|-2---0---2---0---2---0---4---0---------------------------------|
E|-0-------0-------0---------------------------------------------| 
Chorus 2
Intro
Bridge:
   E   A  C#m  A   E   A  C#m  A
e|-0---0---0---0---0---0---0---0---------------------------------|
B|-0---0---0---0---0---0---0---0---------------------------------|
G|-1---2---6---2---1---2---6---2---------------------------------|
D|-2---2---6---2---2---2---6---2---------------------------------|
A|-2---0---4---0---2---0---4---0---------------------------------|
E|-0---------------0---------------------------------------------| 
Bridge
Interlude:
   E   A  C#m  A
e|-0---0---0---0-------------------------------------------------|
B|-0---0---0---0-------------------------------------------------|
G|-1---2---6---2-------------------------------------------------|
D|-2---2---6---2-------------------------------------------------|
A|-2---0---4---0-------------------------------------------------|
E|-0-------------------------------------------------------------| 
Bridge
Chorus 2
Outro:
   E   A   E
e|-0---0---0-----------------------------------------------------|
B|-0---0---0-----------------------------------------------------|
G|-1---2---1-----------------------------------------------------|
D|-2---2---2-----------------------------------------------------|
A|-2---0---2-----------------------------------------------------|
E|-0-------0-----------------------------------------------------| 
| /  slide up
| \  slide down
| h  hammer-on
| p  pull-off
| ~  vibrato
| +  harmonic
| x  Mute note

Click HERE To Download PDF

3 comments:

Ropheka said...

NICE Blog :)

HAPPY NEW YEAR :)

CresceNet said...

Gostei muito desse post e seu blog é muito interessante, vou passar por aqui sempre =) Depois dá uma passada lá no meu site, que é sobre o CresceNet, espero que goste. O endereço dele é http://www.provedorcrescenet.com . Um abraço.

Anonymous said...

i need some help i'm a begginer, can you tell me what string and freta nd everything please! my e mail is cinderblocklimbs@yahoo.com