Tuesday, December 25, 2007

Wholly Yours

Wholly Yours (A Collision Album Version)A worship song by David Crowder Band. The lyrics remind of me 1 Peter 1:13-16, where Peter tells "God's elect, strangers in the world, scattered throughout Pontus, Galatia, Cappadocia, Asia and Bithynia" (v. 1), "Therefore, prepare your minds for action; be self-controlled; set your hope fully on the grace to be given you when Jesus Christ is revealed. As obedient children, do not conform to the evil desires you had when you lived in ignorance. But just as he who called you is holy, so be holy in all you do; for it is written: "Be holy, because I am holy."

Peter instructs us to live in obedience to Christ, a new life in Christ, that does not conform to our old life's evil desires - a holy life. Peter quotes from an Old Testament passaged in Leviticus 11:44-45 concerning clean and unclean food, which says, "I am the LORD your God; consecrate yourselves and be holy, because I am holy. Do not make yourselves unclean by any creature that moves about on the ground. I am the LORD who brought you up out of Egypt to be your God; therefore be holy, because I am holy."

God is holy. And as His people and children, we too are to be like Him - holy. While it may seem like an impossible task for Christians living in a wicked and depraved generation, His Holy Spirit empowers us to live above our circumstances. Christ has atoned for our sins once and for all, while He has sent the Holy Spirit to be our Helper in this world to know Him more, and to help us live holy lives. Thank you Jesus. You are holy. I wanna be holy like You are.





-----------------------------------------------------------------
WHOLLY YOURS – David Crowder Band
-----------------------------------------------------------------
Tabbed by: Graham Choo
Email: da_tweens@yahoo.co.uk

Tuning: Standard
Intro:
   G         Bm      C            
e|--------------------------------0--------------------------------|
B|-----3---------7-------8h10-8---8--------------------------------|
G|---------------------0----------0--------------------------------|
D|---0---------5---------------------------------------------------|
A|-----------------0-----------------------------------------------|
E|-3-----0h3/7-------8----------8----------------------------------| 
Intro
Verse 1:
   G         Bm      C              G         Bm      C
e|--------------------------------0------------------------------0-|
B|-----3---------7-------8h10-8---8-----3---------7-------8h10---8-|
G|---------------------0----------0---------------------0--------0-|
D|---0---------5----------------------0---------5------------------|
A|-----------------0--------------------------------0--------------|
E|-3-----0h3/7-------8----------8---3-----0h3/7-------8--------8---| 
   G         Bm      C              G         Bm      C
e|--------------------------------0------------------------------0-|
B|-----3---------7-------8h10-8---8-----3---------7-------8h10---8-|
G|---------------------0----------0---------------------0--------0-|
D|---0---------5----------------------0---------5------------------|
A|-----------------0--------------------------------0--------------|
E|-3-----0h3/7-------8----------8---3-----0h3/7-------8--------8---| 
Pre-Chorus:
   Em  C9  G  D/F# D/B C9  G  D/F#
e|-3---3---3---3---3---3---3---3-----------------------------------|
B|-3---3---3---3---3---3---3---3-----------------------------------|
G|-0---0---0---2---2---0---0---2-----------------------------------|
D|-2---2---0---0---0---2---0---0-----------------------------------|
A|-2---3---2---0---2---3---2---0-----------------------------------|
E|-0-------3---2-----------3---2-----------------------------------| 
Chorus 1:
   C9  G Dsus D/F# D/B C9  G Dsus D/F# D/B
e|-3---3---3---3---3---3---3---3---3---3---------------------------|
B|-3---3---3---3---3---3---3---3---3---3---------------------------|
G|-0---0---2---2---2---0---0---2---2---2---------------------------|
D|-2---0---0---0---0---2---0---0---0---0---------------------------|
A|-3---2-------0---2---3---2-------0---2---------------------------|
E|-----3-------2-----------3-------2-------------------------------| 
   C9  G Dsus D/F# D/B C9  G  Dsus
e|-3---3---3---3---3---3---3---3-----------------------------------|
B|-3---3---3---3---3---3---3---3-----------------------------------|
G|-0---0---2---2---2---0---0---2-----------------------------------|
D|-2---0---0---0---0---2---0---0-----------------------------------|
A|-3---2-------0---2---3---2---------------------------------------|
E|-----3-------2-----------3---------------------------------------| 
Intro
Verse 2:
   G         Bm      C              G         Bm      C
e|--------------------------------0------------------------------0-|
B|-----3---------7-------8h10-8---8-----3---------7-------8h10---8-|
G|---------------------0----------0---------------------0--------0-|
D|---0---------5----------------------0---------5------------------|
A|-----------------0--------------------------------0--------------|
E|-3-----0h3/7-------8----------8---3-----0h3/7-------8--------8---| 
Pre-Chorus
Chorus 1
Bridge:
  G/F  C9  G  D/F# C9 D/B  G  D/F#
e|-3---3---3---3---3---3---3---3-----------------------------------|
B|-3---3---3---3---3---3---3---3-----------------------------------|
G|-0---0---0---2---0---2---0---2-----------------------------------|
D|-3---2---0---0---2---0---0---0-----------------------------------|
A|-0---3---2---0---3---2---2---0-----------------------------------|
E|-1-------3---2-----------3---2-----------------------------------| 
Chorus 2:
   C9  G Dsus D/F# D/B C9  G Dsus D/F# D/B
e|-3---3---3---3---3---3---3---3---3---3---------------------------|
B|-3---3---3---3---3---3---3---3---3---3---------------------------|
G|-0---0---2---2---2---0---0---2---2---2---------------------------|
D|-2---0---0---0---0---2---0---0---0---0---------------------------|
A|-3---2-------0---2---3---2-------0---2---------------------------|
E|-----3-------2-----------3-------2-------------------------------| 
   C9  G Dsus D/F# D/B C9  G  Dsus D/F#
e|-3---3---3---3---3---3---3---3---3-------------------------------|
B|-3---3---3---3---3---3---3---3---3-------------------------------|
G|-0---0---2---2---2---0---0---2---2-------------------------------|
D|-2---0---0---0---0---2---0---0---0-------------------------------|
A|-3---2-------0---2---3---2-------0-------------------------------|
E|-----3-------2-----------3-------2-------------------------------| 
   C9  G Dsus D/F# D/B C9  G  Dsus
e|-3---3---3---3---3---3---3---3-----------------------------------|
B|-3---3---3---3---3---3---3---3-----------------------------------|
G|-0---0---2---2---2---0---0---2-----------------------------------|
D|-2---0---0---0---0---2---0---0-----------------------------------|
A|-3---2-------0---2---3---2---------------------------------------|
E|-----3-------2-----------3-------2-------------------------------| 
Chorus 1
Intro 2x
| /  slide up
| \  slide down
| h  hammer-on
| p  pull-off
| ~  vibrato
| +  harmonic
| x  Mute note

Click HERE To Download PDF

4 comments:

eric chin said...

hey boys!

was just at singapore visiting your parents, jon & and marry ann and the new addition kayli!

missed you guys tho, and everyone's telling me to check out your site so I'm here :)

nice playing and hope to catch up with you all!

eric

Graham Choo said...

Hey dude!
Sorry we missed you. Gave Jon a surprise birthday party the day you came over for dinner. Hope you're doing fine man.

Oh yeah, you can check out Kotaro Oshio if you haven't heard of him already. He's an acoustic guitar player, and has some really kick ass songs, mostly with alternate tunings!

Just spending my time learning songs. It's quite fun :) Hope we'll get to meet up again soon! God bless

Graham

Will Takakura said...

hey umm i had a question. r u sure the intro is tabbed right because, I think what your brother says on the tutorial is different than the tabs.

thanks guys and God bless

Graham Choo said...

Hey Will,I tabbed the song out according to what my brother played in the video, not the instructional. He tends to teach differently in the instructional video, because he simplifies it for the viewers so that they can learn it more easily :)