Monday, December 10, 2007

There Is A Higher Throne

There Is A Higher ThroneA worship song by Kristyn Getty. In Revelation 7:14-17, John was answered by an elder in his vision regarding who the people in white robes were. "These are they who have come out of the great tribulation; they have washed their robes and made them white in the blood of the Lamb. Therefore, 'they are before the throne of God and serve him day and night in his temple; and he who sits on the throne will spread his tent over them. Never again will they hunger; never again will they thirst. The sun will not beat upon them, nor any scorching heat. For the Lamb at the center of the throne will be their shepherd; he will lead them to springs of living water. And God will wipe away every tear from their eyes.'

While the book of Revelation may be rather ambiguous and open to various interpretations, the general message is clear. Christ will return again one day. Those who have endured with Him and remained faithful and obedient to Him will receive His blessings. We will worship Him forever, who sits on the throne, and He will lead us to eternal life and rest in Him. All glory, wisdom, power, strength, thanks and honour, are to God our king who reigns on high forevermore. Amen!



-----------------------------------------------------------------
THERE IS A HIGHER THRONE – Kristyn Getty
-----------------------------------------------------------------
Tabbed by: Graham Choo
Email: da_tweens@yahoo.co.uk

Tuning: Standard
Intro:
   E   A   E   A
e|-0---0---0---0-------------------------------------------------|
B|-0---0---0---0-------------------------------------------------|
G|-4---4---4---4-------------------------------------------------|
D|-2---2---2---2-------------------------------------------------|
A|-2---0---2---0-------------------------------------------------|
E|-0-------0-----------------------------------------------------| 
Verse:
   E   A   B   E  C#m  A  F#m  B   E   A   B   E  C#m  A  F#m  B
e|-0---0---0---0---0---0---0---0---0---0---0---0---0---0---0---0-|
B|-0---0---0---0---0---0---0---0---0---0---0---0---0---0---0---0-|
G|-4---4---4---4---6---4---2---4---4---4---4---4---6---4---2---4-|
D|-2---2---4---2---6---2---4---4---2---2---4---2---6---2---4---4-|
A|-2---0---2---2---4---0---4---2---2---0---2---2---4---0---4---2-|
E|-0-----------0-------------------0-----------0-----------------| 
Chorus:
  G#m  A   B   E  C#m  A  F#m  B  G#m  A   B   E  C#m  A  F#m  B
e|-0---0---0---0---0---0---0---0---0---0---0---0---0---0---0---0-|
B|-0---0---0---0---0---0---0---0---0---0---0---0---0---0---0---0-|
G|-4---4---4---4---6---4---2---4---4---4---4---4---6---4---2---4-|
D|-4---2---4---2---6---2---4---4---4---2---4---2---6---2---4---4-|
A|-0x--0---2---2---4---0---4---2---0x--0---2---2---4---0---4---2-|
E|-4-----------0-------------------4-----------0-----------------| 
Intro
Verse
Chorus
Interlude:
  F#m G#m  A   B
e|-0---0---0---0-------------------------------------------------|
B|-0---0---0---0-------------------------------------------------|
G|-2---4---4---4-------------------------------------------------|
D|-4---4---2---4-------------------------------------------------|
A|-4---0x--0---2-------------------------------------------------|
E|-----4---------------------------------------------------------| 
Chorus
Intro
| /  slide up
| \  slide down
| h  hammer-on
| p  pull-off
| ~  vibrato
| +  harmonic
| x  Mute note

Click HERE To Download PDF

2 comments:

rokey said...

Hey graham,

I think the pdf link for this is wrong. It's linked to SpiritTouchYourchurch.pdf

=)

Graham Choo said...

Hey Rokey, thanks for alerting me on that. I've linked it to the right file :)

Should you find any more problems, feel free to tell me about it! Thanks! :)