Wednesday, December 12, 2007

The Wonderful Cross

Wonderful Cross, The (The Noise We Make Album Version)A worship song by Chris Tomlin. In Ephesians 2:1:5, Paul writes to the church in Ephesus, "As for you, you were dead in your transgressions and sins, in which you used to live when you followed the ways of this world and of the ruler of the kingdom of the air, the spirit who is now at work in those who are disobedient. All of us also lived among them at one time, gratifying the cravings of our sinful nature and following its desires and thoughts. Like the rest, we were by nature objects of wrath. But because of his great love for us, God, who is rich in mercy, made us alive with Christ even when we were dead in transgressions—it is by grace you have been saved."

We were all once sinners who lived worldly lives, and thus condemned to eternal death and separation from God, because He is a holy God who detests sin. But God provided a way out for us through His son Jesus, whose great sacrifice for us redeemed us from our sinful ways, and made us righteous before God, if only we would believe that Jesus is the Christ. The cross which was once a symbol of shame, is now God's symbol of redemption and love for man. When we die to our sins daily, then will we truly be alive in Christ. Thank you God for your great grace and mercy for us!





-----------------------------------------------------------------
THE WONDERFUL CROSS – Chris Tomlin
-----------------------------------------------------------------
Tabbed by: Graham Choo
Email: da_tweens@yahoo.co.uk

Tuning: Standard
Intro:
   D          Dsus D      Dsus D  Asus
e|-----0x--2x--3x--2x—-2x--3x--2x--0x-------------------------------|
B|-3x--3x--3x--3x--3x--3x--3x--3x--3x-------------------------------|
G|-2x--2x--2x--2x--2x--2x--2x--2x--2x-------------------------------|
D|-0x--0x--0x--0x--0x--0x--0x--0x--2x-------------------------------|
A|---------------------------------0x-------------------------------|
E|------------------------------------------------------------------| 
OR
e|------------------------------------------------------------------|
B|------------------------------------------------------------------|
G|-7-9-9/11-9-11-11/12-11-9-9/11-11-11h12-11-9-7-6-7-7/9------------|
D|-0-0-0-0--0-0--0--0--0--0-0-0--0--0--0--0--0-0-0-0-0-0------------|
A|------------------------------------------------------------------|
E|------------------------------------------------------------------| 
Verse 1:
   D          Dsus D      Dsus D  Asus
e|-----0x--2x--3x--2x—-2x--3x--2x--0x-------------------------------|
B|-3x--3x--3x--3x--3x--3x--3x--3x--3x-------------------------------|
G|-2x--2x--2x--2x--2x--2x--2x--2x--2x-------------------------------|
D|-0x--0x--0x--0x--0x--0x--0x--0x--2x-------------------------------|
A|---------------------------------0x-------------------------------|
E|------------------------------------------------------------------| 
   D          Dsus D      Asus G  Asus D
e|-----0x--2x--3x--2x—-2x--0x------0x--2x---------------------------|
B|-3x--3x--3x--3x--3x--3x--3x------3x--3x---------------------------|
G|-2x--2x--2x--2x--2x--2x--2x--0x--2x--2x---------------------------|
D|-0x--0x--0x--0x--0x--0x--2x--0x--2x--0x---------------------------|
A|-------------------------0x--2x--0x-------------------------------|
E|-----------------------------3x-----------------------------------| 
OR
e|------------------------------------------------------------------|
B|------------------------------------------------------------------|
G|-7-9-9/11-9-11-11/12-11-9-9/11-11-11h12-11-9-7-6-7-7/9------------|
D|-0-0-0-0--0-0--0--0--0--0-0-0--0--0--0--0--0-0-0-0-0-0------------|
A|------------------------------------------------------------------|
E|------------------------------------------------------------------| 
e|------------------------------------------------------------------|
B|------------------------------------------------------------------|
G|-7-9-9/11-9-11-11/12-11-9-9/11-11-9-7-7/9-9/11-9-7----------------|
D|-0-0-0-0--0-0--0--0--0--0-0-0--0--0-0-0/0-0/0--0-0----------------|
A|------------------------------------------------------------------|
E|------------------------------------------------------------------| 
Verse 2:
   D          Dsus D      Dsus D  Asus
e|-----0x--2x--3x--2x—-2x--3x--2x--0x-------------------------------|
B|-3x--3x--3x--3x--3x--3x--3x--3x--3x-------------------------------|
G|-2x--2x--2x--2x--2x--2x--2x--2x--2x-------------------------------|
D|-0x--0x--0x--0x--0x--0x--0x--0x--2x-------------------------------|
A|---------------------------------0x-------------------------------|
E|------------------------------------------------------------------| 
   D          Dsus D      Asus G  Asus D
e|-----0x--2x--3x--2x—-2x--0x------0x--2x---------------------------|
B|-3x--3x--3x--3x--3x--3x--3x------3x--3x---------------------------|
G|-2x--2x--2x--2x--2x--2x--2x--0x--2x--2x---------------------------|
D|-0x--0x--0x--0x--0x--0x--2x--0x--2x--0x---------------------------|
A|-------------------------0x--2x--0x-------------------------------|
E|-----------------------------3x-----------------------------------| 
OR
e|------------------------------------------------------------------|
B|------------------------------------------------------------------|
G|-11-12-12/14-12-14-14/16-14-12-12/14-14-14/16-14-12-11-9-11-11/14-|
D|-0--0--0--0--0--0--0--0--0--0--0--0--0--0--0--0--0--0--0-0--0--0--|
A|------------------------------------------------------------------|
E|------------------------------------------------------------------| 
e|------------------------------------------------------------------|
B|------------------------------------------------------------------|
G|-11-12-12/14-12-14-14/16-14-12-12/14-14-12-11-11h12-12/14-12-11---|
D|-0--0--0--0--0--0--0--0--0--0--0--0--0--0--0--0--0--0--0--0--0----|
A|------------------------------------------------------------------|
E|------------------------------------------------------------------| 
Chorus:
   G  D/F# G  D/F# G D/F# Asus A7  G  D/F# G  D/F# G D/F# Asus A7
e|-3---0---3---0---3---0---0---0---3---0---3---0---3---0---0---0----|
B|-3---3---3---3---3---3---3---2---3---3---3---3---3---3---3---2----|
G|-0---2---0---2---0---2---0---0---0---2---0---2---0---2---0---0----|
D|-0---0---0---0---0---0---2---2---0---0---0---0---0---0---2---2----|
A|-2---0---2---0---2---0---0---0---2---0---2---0---2---0---0---0----|
E|-3---2---3---2---3---2-----------3---2---3---2---3---2------------| 
Verse 3:
   D          Dsus D      Dsus D  Asus
e|-----0x--2x--3x--2x—-2x--3x--2x--0x-------------------------------|
B|-3x--3x--3x--3x--3x--3x--3x--3x--3x-------------------------------|
G|-2x--2x--2x--2x--2x--2x--2x--2x--2x-------------------------------|
D|-0x--0x--0x--0x--0x--0x--0x--0x--2x-------------------------------|
A|---------------------------------0x-------------------------------|
E|------------------------------------------------------------------|

   D          Dsus D      Asus G  Asus D
e|-----0x--2x--3x--2x—-2x--0x------0x--2x---------------------------|
B|-3x--3x--3x--3x--3x--3x--3x------3x--3x---------------------------|
G|-2x--2x--2x--2x--2x--2x--2x--0x--2x--2x---------------------------|
D|-0x--0x--0x--0x--0x--0x--2x--0x--2x--0x---------------------------|
A|-------------------------0x--2x--0x-------------------------------|
E|-----------------------------3x-----------------------------------| 
OR
e|------------------------------------------------------------------|
B|------------------------------------------------------------------|
G|-7-9-9/11-9-11-11/12-11-9-9/11-11-11h12-11-9-7-6-7-7/9------------|
D|-0-0-0-0--0-0--0--0--0--0-0-0--0--0--0--0--0-0-0-0-0-0------------|
A|------------------------------------------------------------------|
E|------------------------------------------------------------------| 
e|------------------------------------------------------------------|
B|------------------------------------------------------------------|
G|-11-12-12/14-12-14-14/16-14-12-12/14-14-12-11-11h12-12/14-12-11---|
D|-0--0--0--0--0--0--0--0--0--0--0--0--0--0--0--0--0--0--0--0--0----|
A|------------------------------------------------------------------|
E|------------------------------------------------------------------| 
Chorus
Outro:
   D          Dsus D      Asus G  Asus D
e|-----0x--2x--3x--2x—-2x--0x------0x--0x---------------------------|
B|-3x--3x--3x--3x--3x--3x--3x------3x--3x---------------------------|
G|-2x--2x--2x--2x--2x--2x--2x--0x--2x--2x---------------------------|
D|-0x--0x--0x--0x--0x--0x--2x--0x--2x--0x---------------------------|
A|-------------------------0x--2x--0x-------------------------------|
E|-----------------------------3x-----------------------------------| 
OR
e|------------------------------------------------------------------|
B|------------------------------------------------------------------|
G|-7-9-9/11-9-11-11/12-11-9-9/11-11-9-7-7/9-9-9/11-9-7--------------|
D|-0-0-0-0--0-0--0--0--0--0-0-0--0--0-0-0-0-0-0-0--0-0--------------|
A|------------------------------------------------------------------|
E|------------------------------------------------------------------|
| /  slide up
| \  slide down
| h  hammer-on
| p  pull-off
| ~  vibrato
| +  harmonic
| x  Mute note 

Click HERE To Download PDF

3 comments:

TSHusker said...

Blessings on you guys! I'm thankful for HIS anointing on your guitar playing! Great video.

Rye J said...

Thanks Daniel, your songs has always been a good share for my P&W list. God bless your heart for giving to His service.

Rye J said...

Thanks Dan, your songs has been a great share for my P&W list preparation. God bless your heart for giving to His service.