Sunday, January 13, 2008

Shout To The North

Shout To The NorthA worship song by Delirious. It speaks of how us unworthy and broken people can still proclaim God's glory throughout the earth - because He has given us the gift of salvation through our Lord Jesus Christ, if only we would receive Him. God then refines and moulds us, picks us up from our brokenness, and His Spirit enables us for His using.

This good news and message of forgiveness and salvation is something so good, that we can not and should not stay silent. Jesus deserves all the glory for His great love for us. Therefore we will shout to the North and the South, sing to the East and the West, that Jesus is Saviour to all, Lord of heaven and earth!





-----------------------------------------------------------------
SHOUT TO THE NORTH – Delirious
-----------------------------------------------------------------
Tabbed by: Graham Choo
Email: da_tweens@yahoo.co.uk

Tuning: Standard
Intro:
   G   C9  G   C9  G   C9  G
e|-3---3---3---3---3---3---3-------------------------------------|
B|-3---3---3---3---3---3---3-------------------------------------|
G|-0---0---0---0---0---0---0-------------------------------------|
D|-0---2---0---2---0---2---0-------------------------------------|
A|-2---3---2---3---2---3---2-------------------------------------|
E|-3-------3-------3-------3-------------------------------------| 
Verse:
   G  Dsus C9  G  Dsus C9  G  Dsus C9  G  Dsus C9
e|-3---3---3---3---3---3---3---3---3---3---3---3-----------------|
B|-3---3---3---3---3---3---3---3---3---3---3---3-----------------|
G|-0---2---0---0---2---0---0---2---0---0---2---0-----------------|
D|-0---0---2---0---0---2---0---0---2---0---0---2-----------------|
A|-2-------3---2-------3---2-------3---2-------3-----------------|
E|-3-----------3-----------3-----------3-------------------------| 
Chorus 1:
   G   C9 Dsus G   C9 Dsus G   C9 Dsus C9 Dsus G
e|-3---3---3---3---3---3---3---3---3---3---3---3-----------------|
B|-3---3---3---3---3---3---3---3---3---3---3---3-----------------|
G|-0---0---2---0---0---2---0---0---2---0---2---0-----------------|
D|-0---2---0---0---2---0---0---2---0---2---0---0-----------------|
A|-2---3-------2---3-------2---3-------3-------2-----------------|
E|-3-----------3-----------3-------------------3-----------------| 
Verse
Chorus 1
Bridge:
   Em  C9  Em  C9  Em  C9  C9 Dsus
e|-3---3---3---3---3---3---3---3---------------------------------|
B|-3---3---3---3---3---3---3---3---------------------------------|
G|-0---0---0---0---0---0---0---2---------------------------------|
D|-2---2---2---2---2---2---2---0---------------------------------|
A|-2---3---2---3---2---3---3-------------------------------------|
E|-0-------0-------0---------------------------------------------| 
Chorus 2:
   G   C9 Dsus G   C9 Dsus Em  C9 Dsus C9 Dsus G
e|-3---3---3---3---3---3---3---3---3---3---3---3-----------------|
B|-3---3---3---3---3---3---3---3---3---3---3---3-----------------|
G|-0---0---2---0---0---2---0---0---2---0---2---0-----------------|
D|-0---2---0---0---2---0---2---2---0---2---0---0-----------------|
A|-2---3-------2---3-------2---3-------3-------2-----------------|
E|-3-----------3-----------0-------------------3-----------------| 
Chorus 2
Verse
Chorus 2 2x
Outro:
   C9 Dsus G   C9 Dsus G   C9  G
e|-3---3---3---3---3---3---3---3---------------------------------|
B|-3---3---3---3---3---3---3---3---------------------------------|
G|-0---2---0---0---2---0---0---0---------------------------------|
D|-2---0---0---2---0---0---2---0---------------------------------|
A|-3-------2---3-------2---3---2---------------------------------|
E|---------3-----------3-------3---------------------------------| 
| /  slide up
| \  slide down
| h  hammer-on
| p  pull-off
| ~  vibrato
| +  harmonic
| x  Mute note 

Click HERE To Download PDF

5 comments:

Anonymous said...

isnt this key a bit low?

Graham Choo said...

Actually, it's in the same key that Delirious sings it. But if you find it a little low, then you can always place a capo on your guitar to raise the key. The tabs will still be relevant :)

Anonymous said...

i am trying to leam how to play for the glory of god i was like to ask you what these C9 Dsus G C9 Dsus G C9 G Mean?

Graham Choo said...

C9, Dsus, G, and all the letters are chord names. They indicate what you should play in order to play the song. The numbers create tabs that help you to know where to press to form those chords.

For more assistance, you can check out this website, which shows the chord shapes to aid you in knowing which notes to press: http://www.jamplay.com/guitar-chords/free-guitar-chords.html

Garcia said...

Merci pour ton don. Je suis progresse vraiment avec tes conseils.Je rend grace au Seigneur pour ton don d'enseigner !

Super !
(FRANCE)

Thank you for your gift(donation). I am really progress with your advices. I returns grace to the Lord for your gift(donation) to teach!

Super!