Friday, January 18, 2008

In Christ Alone

In Christ Alone (See What A Morning Album Version)A worship song by Stuart Townend. The song basically paints the picture of a Christian life and what Christ has done for us - what we believe in.

God first loved us. And His love for us does not falter, despite being sinful people. We can thus stand in the love of Christ, because nothing can separate us from the love of God (Rom 8:38-39). Jesus then suffered on the cross because of His great love for us, to redeem us from our sins. He is the atoning sacrifice for the sins of the world (1 John 2:2), and we can thus stand in the death of Christ because it has brought us salvation and a new life in Him. But Christ rose again, proving that death no longer has mastery over Him (Romans 6:9). Likewise, His death has given us victory over death's sting (1 Corinthians 15:55-57). We have been bought with the precious blood of Christ.

Christ will return again one day. Until that day, the helper and counselor, the Holy Spirit , will teach and remind us of everything Christ has taught (John 14:26). Christ's death has released us from the penalty of sin, which is eternal death; separation from God. But His Holy Spirit will aid us in combating the power of living in a sinful world. Here in the power of Christ I'll stand!





-----------------------------------------------------------------
IN CHRIST ALONE – Stuart Townend
-----------------------------------------------------------------
Tabbed by: Graham Choo
Email: da_tweens@yahoo.co.uk

Tuning: Standard (Capo 1st Fret)
Intro:
   Am  G   D  Dsus D
e|-0---3---2---3---2---------------------------------------------|
B|-1---3---3---3---3---------------------------------------------|
G|-2---0---2---2---2---------------------------------------------|
D|-2---0---0---0---0---------------------------------------------|
A|-0---2---------------------------------------------------------|
E|-----3---------------------------------------------------------| 
Verse:
  Asus D Asus D/F# G   Em Asus D  Dsus D Asus D/F# G   Em Asus D
e|-0---0---0---0---3---3---0---0---3---2---0---0---3---3---0---2-|
B|-3---3---3---3---3---3---3---3---3---3---3---3---3---3---3---3-|
G|-2---2---2---2---0---0---2---2---2---2---2---2---0---0---2---2-|
D|-2---0---2---0---0---2---2---0---0---0---2---0---0---2---2---0-|
A|-0-------0---0---2---2---0---------------0---0---2---2---0-----|
E|-------------2---3---0-----------------------2---3---0---------| 
Chorus 1:
  D/F# G Asus D/F# G  Asus D Asus D/F# G   Em Asus D  Dsus D
e|-0---3---0---0---3---0---2---0---0---3---3---0---2---3---2-----|
B|-3---3---3---3---3---3---3---3---3---3---3---3---3---3---3-----|
G|-2---0---2---2---0---2---2---2---2---0---0---2---2---2---2-----|
D|-0---0---2---0---0---2---0---2---0---0---2---2---0---0---0-----|
A|-0---2---0---0---2---0-------0---0---2---2---0-----------------|
E|-2---3-------2---3---------------2---3---0---------------------| 
Verse
Chorus 1
Verse
Chorus 1
Verse
Chorus 2
  D/F# G Asus D/F# G  Asus D Asus D/F# G   Em Asus D
e|-0---3---0---0---3---0---2---0---0---3---3---0---2-------------|
B|-3---3---3---3---3---3---3---3---3---3---3---3---3-------------|
G|-2---0---2---2---0---2---2---2---2---0---0---2---2-------------|
D|-0---0---2---0---0---2---0---2---0---0---2---2---0-------------|
A|-0---2---0---0---2---0-------0---0---2---2---0-----------------|
E|-2---3-------2---3---------------2---3---0---------------------| 
Chorus 2
Outro:
   D Asus D/F# G   Em Asus D  Dsus D
e|-2---0---0---3---3---0---2---3---2-----------------------------|
B|-3---3---3---3---3---3---3---3---3-----------------------------|
G|-2---2---2---0---0---2---2---2---2-----------------------------|
D|-0---2---0---0---2---2---0---0---0-----------------------------|
A|-----0---0---2---2---0-----------------------------------------|
E|---------2---3---0---------------------------------------------|
| /  slide up
| \  slide down
| h  hammer-on
| p  pull-off
| ~  vibrato
| +  harmonic
| x  Mute note

Click HERE To Download PDF

5 comments:

Rose said...

Thank you so much! You did a wonderful job with this song. God bless you in His ministry!

Anonymous said...

Thank you soo much!!!

Mr Fixit eh said...

Thank-you, Daniel for yourtabs and instructional videos. They have helped me master quite a few worship songs - who knew worship songs could be so hard to learn. Be encouraged and keep up the good work.

I believe 'In Christ Alone' was co-written by Stuart Townend (not Townsend) and Keith Getty, 2002.

Ref: http://en.wikipedia.org/wiki/Stuart_Townend

http://www.stuarttownend.co.uk/

God bless,
Steve Aiken
Ontario, Canada

Graham Choo said...

Hey Steve, thanks so much for alerting me to that. I've made the changes. Thanks!

tasuki78 said...

Thanks Daniel and Graham for your videos, time and effort. May God bless you two! Many Thanks from Orlando Florida!