Thursday, January 24, 2008

Unashamed

Unashamed (Beauty In The Broken Album Version)A worship song by Starfield. In 1 Timothy 1:15-16, Paul writes to encourage Timothy, "Here is a trustworthy saying that deserves full acceptance: Christ Jesus came into the world to save sinners—of whom I am the worst. But for that very reason I was shown mercy so that in me, the worst of sinners, Christ Jesus might display his unlimited patience as an example for those who would believe on him and receive eternal life."

Paul, or Saul before conversion, was a zealous persecutor of the church. He considered himself the chief of all sinners. He was ruthless and sought out Christians to be put in jail. However, even he who persecuted the body of Christ was saved, on the road to Damascus, when Jesus appeared to him. Indeed, Jesus came into the world to save sinners - and that includes you and me, and everyone else. We may be the worst of sinners who live worldly lives and pursue a life of worldly pleasures, but Christ's love and salvation extends to all.

The invitation has been made - "While we were still sinners, Christ died for us" (Romans 5:8b). If only we would believe and place our trust in Him, to turn from our wicked ways and follow Him in obedience, in a life anew. And I know I'm weak, I know I'm unworthy, to call upon Your name. But because of grace, because of Your mercy, I stand here unashamed. Call upon Jesus because He saves!





-----------------------------------------------------------------
UNASHAMED - Starfield
-----------------------------------------------------------------
Tabbed by: Graham Choo
Email: da_tweens@yahoo.co.uk

Tuning: Standard (Capo 1st Fret)
Verse 1:
   A   B  C#m  A   B  C#m  A   B  C#m  A   B   E
e|-0---0---0---0---0---0---0---0---0---0---0---0-----------------|
B|-0---0---0---0---0---0---0---0---0---0---0---0-----------------|
G|-2---4---6---2---4---6---2---4---6---2---4---1-----------------|
D|-2---4---6---2---4---6---2---4---6---2---4---2-----------------|
A|-0---2---4---0---2---4---0---2---4---0---2---2-----------------|
E|---------------------------------------------0-----------------| 
Verse 2:
   A   B  C#m G#m  A   B  C#m  A   B  C#m G#m  A   B   E
e|-0---0---0---0---0---0---0---0---0---0---0---0---0---0---------|
B|-0---0---0---0---0---0---0---0---0---0---0---0---0---0---------|
G|-2---4---6---4---2---4---6---2---4---6---4---2---4---1---------|
D|-2---4---6---6---2---4---6---2---4---6---6---2---4---2---------|
A|-0---2---4---6---0---2---4---0---2---4---6---0---2---2---------|
E|-----------------------------------------------------0---------| 
Chorus:
   A   B  C#m G#m  A   B  C#m  A   B  C#m G#m  A   B   E
e|-0---0---0---0---0---0---0---0---0---0---0---0---0---0---------|
B|-0---0---0---0---0---0---0---0---0---0---0---0---0---0---------|
G|-2---4---6---4---2---4---6---2---4---6---4---2---4---1---------|
D|-2---4---6---6---2---4---6---2---4---6---6---2---4---2---------|
A|-0---2---4---6---0---2---4---0---2---4---6---0---2---2---------|
E|-----------------------------------------------------0---------| 
Interlude 1:
   A   B  C#m G#m  A   B  C#m
e|-0---0---0---0---0---0---0-------------------------------------|
B|-0---0---0---0---0---0---0-------------------------------------|
G|-2---4---6---4---2---4---6-------------------------------------|
D|-2---4---6---6---2---4---6-------------------------------------|
A|-0---2---4---6---0---2---4-------------------------------------|
E|---------------------------------------------------------------| 
Verse 2
Chorus 2x
Interlude 2:
   E  Esus E   A   E   A
e|-0---0---0---0---0---0-----------------------------------------|
B|-0---0---0---0---0---0-----------------------------------------|
G|-1---2---1---2---1---2-----------------------------------------|
D|-2---2---2---2---2---2-----------------------------------------|
A|-2---2---2---0---2---0-----------------------------------------|
E|-0---0---0-------0---------------------------------------------| 
Bridge:
   E   A   E   A   E   A   E   A
e|-0---0---0---0---0---0---0---0---------------------------------|
B|-0---0---0---0---0---0---0---0---------------------------------|
G|-1---2---1---2---1---2---1---2---------------------------------|
D|-2---2---2---2---2---2---2---2---------------------------------|
A|-2---0---2---0---2---0---2---0---------------------------------|
E|-0-------0-------0-------0-------------------------------------| 
Bridge
Interlude 3:
   E   A   E   A
e|-0---0---0---0-------------------------------------------------|
B|-0---0---0---0-------------------------------------------------|
G|-1---2---1---2-------------------------------------------------|
D|-2---2---2---2-------------------------------------------------|
A|-2---0---2---0-------------------------------------------------|
E|-0-------0-----------------------------------------------------| 
Verse 1
| /  slide up
| \  slide down
| h  hammer-on
| p  pull-off
| ~  vibrato
| +  harmonic
| x  Mute note

Click HERE To Download PDF

5 comments:

Keegan said...

you guys should do this song called "i know who i am"

http://youtube.com/watch?v=-8AzQzGnAYA

i think you guys would like it

woahitsdavid said...

do you think you can put this song's lyrics and chords in pdf form? thanks

Graham Choo said...

Hey david, the lyrics and chords will be done soon enough. I'm going through all the Christian songs on the blog alphabetically. It's currently at "T" :)

Nicolette said...

will the song work without the kapo?
thanks for the tutorials by the way, they really help. :)

Graham Choo said...

Hey Nicolette, sure! If you're playing without the capo, it'll be in the key of A. Dan's playing it in Bb in the video.
But it all depends on whether you can sing in the key you're playing in.
So if A's the right key for you, you can play without the capo :)