Monday, January 21, 2008

I Still Believe

I Still Believe (Stay Album Version)A worship song by Jeremy Camp. In Jude 1:17-21, Jude gives his Christian audience a call to persevere in the Christian walk and life saying, "But, dear friends, remember what the apostles of our Lord Jesus Christ foretold. They said to you, 'In the last times there will be scoffers who will follow their own ungodly desires.' These are the men who divide you, who follow mere natural instincts and do not have the Spirit. But you, dear friends, build yourselves up in your most holy faith and pray in the Holy Spirit. Keep yourselves in God's love as you wait for the mercy of our Lord Jesus Christ to bring you to eternal life."

Indeed we live in a time when the world is evermore rampant with unbelieving people, and sinful man having the means to gratify their desires privately, and even publicly. As such, we have to persevere in Christ, through the guidance and power given by the Holy Spirit. Living out the Christian life in such times will prove difficult and sometimes hopeless, in the midst of a degenerating world and humanity. But God loves and shows us His mercy through Christ, who died once and for all for our sins. And we can live a victorious life in Christ, even amid suffering, because Christ has given us his Holy Spirit, and comforter and helper to guide us each step of the way.

Let us then persevere in the Christian walk to remain pure and holy for Christ, as a bride prepares herself for the bridegroom when shall come. I still believe in Your faithfulness, truth, Holy Word, and even when I don't see, I still believe!





-----------------------------------------------------------------
I STILL BELIEVE – Jeremy Camp
-----------------------------------------------------------------
Tabbed by: Graham Choo
Email: da_tweens@yahoo.co.uk

Tuning: Standard (Capo 1st Fret)
Intro:
   D  D/C# D/F# D/G  D  D/C# D/F# D/G
e|-0---0----0----0---0---0----0----0-----------------------------|
B|-3---3----3----3---3---3----3----3-----------------------------|
G|-2---2----2----2---2---2----2----2-----------------------------|
D|-0---0----0----0---0---0----0----0-----------------------------|
A|-----4----0----0-------4----0----0-----------------------------|
E|----------2----3------------2----3-----------------------------| 
Verse:
   D  D/C# D/F# D/G  D  D/C# D/F# D/G
e|-0---0----0----0---0---0----0----0-----------------------------|
B|-3---3----3----3---3---3----3----3-----------------------------|
G|-2---2----2----2---2---2----2----2-----------------------------|
D|-0---0----0----0---0---0----0----0-----------------------------|
A|-----4----0----0-------4----0----0-----------------------------|
E|----------2----3------------2----3-----------------------------| 
   D  D/C# D/F# D/G  D  D/C# D/F# D/G
e|-0---0----0----0---0---0----0----0-----------------------------|
B|-3---3----3----3---3---3----3----3-----------------------------|
G|-2---2----2----2---2---2----2----2-----------------------------|
D|-0---0----0----0---0---0----0----0-----------------------------|
A|-----4----0----0-------4----0----0-----------------------------|
E|----------2----3------------2----3-----------------------------| 
Pre-Chorus:
  D/B Asus D/G     D/B Asus D/G
e|-0---0----0---2---0---0----0---2-------------------------------|
B|-3---3----3---3---3---3----3---3-------------------------------|
G|-2---2----2---0---2---2----2---0-------------------------------|
D|-0---2----0---0---0---2----0---0-------------------------------|
A|-2---0----0---0---2---0----0---0-------------------------------|
E|----------3---3------------3---3-------------------------------| 
Chorus:
   D  D/C# D/G      D  D/C# D/G
e|-0---0----0---2---0---0----0---2-------------------------------|
B|-3---3----3---3---3---3----3---3-------------------------------|
G|-2---2----2---0---2---2----2---0-------------------------------|
D|-0---0----0---0---0---0----0---0-------------------------------|
A|-----4----0---0-------4----0---0-------------------------------|
E|----------3---3------------3---3-------------------------------| 
   D  D/C# D/G     D/F# G
e|-0---0----0---2---0---3----------------------------------------|
B|-3---3----3---3---3---3----------------------------------------|
G|-2---2----2---0---2---0----------------------------------------|
D|-0---0----0---0---0---0----------------------------------------|
A|-----4----0---0---0---0----------------------------------------|
E|----------3---3---2---3----------------------------------------| 
Intro
Verse
Pre-Chorus
Chorus
Interlude:
  D/B Asus G  Asus
e|-0---0---3---0-------------------------------------------------|
B|-3---3---3---3-------------------------------------------------|
G|-2---2---0---2-------------------------------------------------|
D|-0---2---0---2-------------------------------------------------|
A|-2---0---0---0-------------------------------------------------|
E|---------3-----------------------------------------------------| 
Bridge:
  D/B Asus G  Asus D/B Asus G  Asus
e|-0---0---3---0----0---0---3---0---------------------------------|
B|-3---3---3---3----3---3---3---3---------------------------------|
G|-2---2---0---2----2---2---0---2---------------------------------|
D|-0---2---0---2----0---2---0---2---------------------------------|
A|-2---0---0---0----2---0---0---0---------------------------------|
E|---------3----------------3-------------------------------------| 
  D/B Asus G  Asus G  Asus
e|-0---0---3---0---3---0------------------------------------------|
B|-3---3---3---3---3---3------------------------------------------|
G|-2---2---0---2---0---2------------------------------------------|
D|-0---2---0---2---0---2------------------------------------------|
A|-2---0---0---0---0---0------------------------------------------|
E|---------3-------3----------------------------------------------| 
Chorus
Intro 2x
| /  slide up
| \  slide down
| h  hammer-on
| p  pull-off
| ~  vibrato
| +  harmonic
| x  Mute note

Click HERE To Download PDF

1 comment:

Jin said...

this is awesome! ur great


could you make a tab for "what it means"?
i cant find one anywhere

it would be great if you could!
or get back to me if you think you cant
asianmannn@gmail.com