Wednesday, February 27, 2008

This Is How We Overcome

This Is How We OvercomeA worship song by Hillsong. The word "overcomes" is a common word that runs throughout the letters to the seven churches in the book of Revelations. "To him that overcomes... I will..." (Revelations 2 - 21). In his letters to the seven churches, they are each commended for certain aspects pertaining to living the Christian life. However, we also see that each of the churches are not perfect. They had their own flaws.

Likewise, we know that living the Christian life comes with many trials and suffering. No one said it would be easy. In fact, Paul tells us in 1 Corinthians 4:11-13 that, "To this very hour we go hungry and thirsty, we are in rags, we are brutally treated, we are homeless. We work hard with our own hands. When we are cursed, we bless; when we are persecuted, we endure it; when we are slandered, we answer kindly. Up to this moment we have become the scum of the earth, the refuse of the world."

But to him that overcomes, God will reward on the day when Jesus comes again. Trust in God to help us through our times of suffering. Lean on the Holy Spirit's power to empower us to live holy lives for Him. Believe in the saving power of Christ's blood, that has removed our sins and granted us salvation through Him. Love and cherish our new relationship with God, that we can now come to Him through Christ who has made us righteous in His sight. This is how we overcome. Thank you Jesus!





-----------------------------------------------------------------
THIS IS HOW WE OVERCOME – Hillsong
-----------------------------------------------------------------
Tabbed by: Graham Choo
Email: da_tweens@yahoo.co.uk

Tuning: Standard
Intro:
   F   G   Am  F   G   Am
e|-1---3---5---1---3---5-----------------------------------------|
B|-1---3---5---1---3---5-----------------------------------------|
G|-2---4---5---2---4---5-----------------------------------------|
D|-3---5---7---3---5---7-----------------------------------------|
A|-3---5---7---3---5---7-----------------------------------------|
E|-1---3---5---1---3---5-----------------------------------------| 
Verse:
   F   G   Am  F   G   Am  F   G   Am  F   G
e|-1---3---5---1---3---5---1---3---5---1---3---------------------|
B|-1---3---5---1---3---5---1---3---5---1---3---------------------|
G|-2---4---5---2---4---5---2---4---5---2---4---------------------|
D|-3---5---7---3---5---7---3---5---7---3---5---------------------|
A|-3---5---7---3---5---7---3---5---7---3---5---------------------|
E|-1---3---5---1---3---5---1---3---5---1---3---------------------| 
Chorus:
   C   G   F   G   C   G   F   G
e|-0---3---1---3---0---3---1---3---------------------------------|
B|-1---3---1---3---1---3---1---3---------------------------------|
G|-0---0---2---0---0---0---2---0---------------------------------|
D|-2---0---3---0---2---0---3---0---------------------------------|
A|-3---2---3---2---3---2---3---2---------------------------------|
E|-----3---1---3-------3---1---3---------------------------------| 
Intro
Verse
Chorus 2x
Bridge:
   F   G   Am  F   G   Am  F   G   Am  F   G   Am
e|-1---3---5---1---3---5---1---3---5---1---3---5-----------------|
B|-1---3---5---1---3---5---1---3---5---1---3---5-----------------|
G|-2---4---5---2---4---5---2---4---5---2---4---5-----------------|
D|-3---5---7---3---5---7---3---5---7---3---5---7-----------------|
A|-3---5---7---3---5---7---3---5---7---3---5---7-----------------|
E|-1---3---5---1---3---5---1---3---5---1---3---5-----------------| 
   F   G   Am  F   G   Am  F   G   Am  F   G   Am
e|-1---3---5---1---3---5---1---3---5---1---3---5-----------------|
B|-1---3---5---1---3---5---1---3---5---1---3---5-----------------|
G|-2---4---5---2---4---5---2---4---5---2---4---5-----------------|
D|-3---5---7---3---5---7---3---5---7---3---5---7-----------------|
A|-3---5---7---3---5---7---3---5---7---3---5---7-----------------|
E|-1---3---5---1---3---5---1---3---5---1---3---5-----------------| 
   F   G   Am  F   G   Am  F   G   Am  F
e|-1---3---5---1---3---5---1---3---5---1-------------------------|
B|-1---3---5---1---3---5---1---3---5---1-------------------------|
G|-2---4---5---2---4---5---2---4---5---2-------------------------|
D|-3---5---7---3---5---7---3---5---7---3-------------------------|
A|-3---5---7---3---5---7---3---5---7---3-------------------------|
E|-1---3---5---1---3---5---1---3---5---1-------------------------| 
Chorus 2x
| /  slide up
| \  slide down
| h  hammer-on
| p  pull-off
| ~  vibrato
| +  harmonic
| x  Mute note 

Click HERE To Download PDF

2 comments:

apple-addict said...

thanks! Your videos are very useful! You are really gifted to teach. Not everyone can make it lesson simplified and easy to follow. Continue to be a blessing to the His body!

kennybrijs said...

Hey man, thanks, already learned some songs with your tut's.

Didn't know this one was available :)