Wednesday, February 20, 2008

He Is Exalted

He Is Exalted (Kingdom Seekers Album Version)A worship song by Twila Paris. In Psalm 148, the psalmist paints an image of all creation exalting the Lord, praising Him, and giving Him all the glory He deserves. It indeed is a majestic scene ranging from the heavenly hosts to lowly man, from nature to animals - ALL of creation.

The lyrics speak of a simple song of praise to God, but yet holds so much awe and splendor in it. We are to exalt the Lord for He is our Creator. We are to praise the Lord for He is good. We are to love God, for He first loved us. He is the Lord, forever His truth shall reign. Heaven and earth, rejoice in His holy name. He is exalted, the King is exalted on high!







-----------------------------------------------------------------
HE IS EXALTED – Twila Paris
-----------------------------------------------------------------
Tabbed by: Graham Choo
Email: da_tweens@yahoo.co.uk

Tuning: Standard
Intro:
   E  G#m  A   B   E  G#m  A   B   E
e|-0---0---0---0---0---0---0---0---0-----------------------------|
B|-0---0---0---0---0---0---0---0---0-----------------------------|
G|-1---4---2---4---1---4---2---4---1-----------------------------|
D|-2---6---2---4---2---6---2---4---2-----------------------------|
A|-2---6---0---2---2---6---0---2---2-----------------------------|
E|-0---------------0---------------0-----------------------------| 
Verse:
   E  G#m  A   B   E  G#m  A   B   C#
e|-0---0---0---0---0---0---0---0---4-----------------------------|
B|-0---0---0---0---0---0---0---0---6-----------------------------|
G|-1---4---2---4---1---4---2---4---6-----------------------------|
D|-2---6---2---4---2---6---2---4---6-----------------------------|
A|-2---6---0---2---2---6---0---2---4-----------------------------|
E|-0---------------0---------------------------------------------| 
Chorus:
  F#m  B   E E/Eb C#m  B   A   B   E E/Eb C#m  B   A   D   B   E
e|-0---0---0---0---0---0---0---0---0---0---0---0---0---0---0---0-|
B|-0---0---0---0---0---0---0---0---0---0---0---0---0---3---0---0-|
G|-2---4---9---8---6---4---2---4---9---8---6---4---2---2---4---1-|
D|-4---4---9---9---6---4---2---4---9---9---6---4---2---0---4---2-|
A|-4---2---7---6---4---2---0---2---7---6---4---2---0-------2---2-|
E|-------------------------------------------------------------0-| 
Verse
Chorus 2x
| /  slide up
| \  slide down
| h  hammer-on
| p  pull-off
| ~  vibrato
| +  harmonic
| x  Mute note

Click HERE To Download PDF

3 comments:

alixandart said...

hi buddy!Chanced upon yr blog and i do like yr vocals and music alot! Keep singing for the Lord.

God bless!

I will be reading yr blog =)

Anonymous said...

Not only are you a good singer and write excellent tabs, but you are quite verse at your fingering technique and arrangment of chords simple yet profound...keep being an embassador for Jesus Christ through his words in song and music

Anonymous said...

thank you so much, I love praising the Lord with this song, quiet hectic for a beginner but I shall testify. Africa for Jesus