Saturday, March 29, 2008

Raining Down

Raining Down (LP Version)A worship song by By The Tree. Talks about the Spirit of God being with us. In John 14:15-26, Jesus reassures His disciples that although He is not going to be with them much longer, He promises to send the Holy Spirit, who will dwell with and in His people, guide them in Jesus' place, teach and remind us about Jesus' teachings, convict the world of their guilt, and bring glory to Jesus.

Indeed the Holy Spirit has been given to us for these very reasons. Scripture tells us to be filled with the Holy Spirit and to not quench it. God we want to be filled by Your Spirit, rain down over us!





-----------------------------------------------------------------
RAINING DOWN – By The Tree
-----------------------------------------------------------------
Tabbed by: Graham Choo
Email: da_tweens@yahoo.co.uk

Tuning: Standard
Verse 1:
   Em D/F# Am7 C9 Dsus Em D/F# Am7 C9 Dsus
e|-3---3---3---3---3---3---3---3---3---3-----------------------------|
B|-3---3---1---3---3---3---3---1---3---3-----------------------------|
G|-0---2---0---0---2---0---2---0---0---2-----------------------------|
D|-2---0---2---2---0---2---0---2---2---0-----------------------------|
A|-2---0---0---3-------2---0---0---3---------------------------------|
E|-0---2---------------0---2-----------------------------------------| 
   Em D/F# Am7 C9 Dsus Em D/F# Am7 C9 Dsus
e|-3---3---3---3---3---3---3---3---3---3-----------------------------|
B|-3---3---1---3---3---3---3---1---3---3-----------------------------|
G|-0---2---0---0---2---0---2---0---0---2-----------------------------|
D|-2---0---2---2---0---2---0---2---2---0-----------------------------|
A|-2---0---0---3-------2---0---0---3---------------------------------|
E|-0---2---------------0---2-----------------------------------------| 
OR
   Em             D/F#          Am7                C         D
e|-------------------------0---------------3-------------------------|
B|-------3---------------3---3---------0h1-----1-------1---------3---|
G|-----0---0---0-------2-------2-----0-------0---0-------0---------0-|
D|---4-------4-------0-------------2-----------------2---------4-----|
A|-------------------------------0-----------------3-------3/5-------|
E|-0-------------0h2-------------------------------------------------| 
   Em             D/F#          Am7                C         D
e|-------------------------0---------------3-------------------------|
B|-------3---------------3---3---------0h1-----1-------1---------3---|
G|-----0---0---0-------2-------2-----0-------0---0-------0---------0-|
D|---4-------4-------0-------------2-----------------2---------4-----|
A|-------------------------------0-----------------3-------3/5-------|
E|-0-------------0h2-------------------------------------------------| 
   Em             D/F#          Am7                C         D
e|-------------------------0---------------3-------------------------|
B|-------3---------------3---3---------0h1-----1-------1---------3---|
G|-----0---0---0-------2-------2-----0-------0---0-------0---------0-|
D|---4-------4-------0-------------2-----------------2---------4-----|
A|-------------------------------0-----------------3-------3/5-------|
E|-0-------------0h2-------------------------------------------------| 
   Em             D/F#          Am7                C       D
e|-------------------------0---------------3-------------------------|
B|-------3---------------3---3---------0h1-----1-------1---3---------|
G|-----0---0---0-------2-------2-----0-------0---0-------0-0---------|
D|---4-------4-------0-------------2-----------------2-----4---------|
A|-------------------------------0-----------------3-------5---------|
E|-0-------------0h2-------------------------------------------------| 
Chorus 1:
   G Dsus Am7  C9 Dsus G Dsus Am7  C9 Dsus
e|-3---3---3---3---3---3---3---3---3---3-----------------------------|
B|-3---3---1---3---3---3---3---1---3---3-----------------------------|
G|-0---2---0---0---2---0---2---0---0---2-----------------------------|
D|-0---0---2---2---0---0---0---2---2---0-----------------------------|
A|-2-------0---3-------2-------0---3---------------------------------|
E|-3-------------------3---------------------------------------------| 
OR
   G  D/G Dsus D    Am7    C   D   G  D/G Dsus D    Am7    C   D
e|-3---2---3---2-------3---3---5---3---2---3---2-------3---3---5-----|
B|-3---3---3---3---0h1-1---1---3---3---3---3---3---0h1-1---1---3-----|
G|-0---0---2---2---0---0---0---0---0---0---2---2---0---0---0---0-----|
D|-0---0---0---0---2---2---2---4---0---0---0---0---2---2---2---4-----|
A|-2---0-----------0---0---3---5---2---0-----------0---3---3---5-----|
E|-3---3---------------------------3---3-----------------------------| 
Interlude 1:
   Em Dsus Am7 C9 Dsus
e|-3---3---3---3---3-------------------------------------------------|
B|-3---3---1---3---3-------------------------------------------------|
G|-0---2---0---0---2-------------------------------------------------|
D|-2---0---2---2---0-------------------------------------------------|
A|-2-------0---3-----------------------------------------------------|
E|-0-----------------------------------------------------------------| 
OR
   Em D/E Dsus D    Am7    C   D
e|-3---2---3---2-------3---3---5-------------------------------------|
B|-3---3---3---3---0h1-1---1---3-------------------------------------|
G|-0---0---2---2---0---0---0---0-------------------------------------|
D|-2---0---0---0---2---2---2---5-------------------------------------|
A|-2---2-----------0---0---3---4-------------------------------------|
E|-0---0-------------------------------------------------------------| 
Verse 2:
   Em D/F# Am7 C9 Dsus Em D/F# Am7 C9 Dsus
e|-3---3---3---3---3---3---3---3---3---3-----------------------------|
B|-3---3---1---3---3---3---3---1---3---3-----------------------------|
G|-0---2---0---0---2---0---2---0---0---2-----------------------------|
D|-2---0---2---2---0---2---0---2---2---0-----------------------------|
A|-2---0---0---3-------2---0---0---3---------------------------------|
E|-0---2---------------0---2-----------------------------------------| 
OR
   Em             D/F#          Am7                C         D
e|-------------------------0---------------3-------------------------|
B|-------3---------------3---3---------0h1-----1-------1---------3---|
G|-----0---0---0-------2-------2-----0-------0---0-------0---------0-|
D|---4-------4-------0-------------2-----------------2---------4-----|
A|-------------------------------0-----------------3-------3/5-------|
E|-0-------------0h2-------------------------------------------------| 
   Em             D/F#          Am7                C       D
e|-------------------------0---------------3-------------------------|
B|-------3---------------3---3---------0h1-----1-------1---3---------|
G|-----0---0---0-------2-------2-----0-------0---0-------0-0---------|
D|---4-------4-------0-------------2-----------------2-----4---------|
A|-------------------------------0-----------------3-------5---------|
E|-0-------------0h2-------------------------------------------------| 
Chorus 1
Interlude 2:
  Am7  C9 Am7  C9 Dsus
e|-3---3---3---3---3-------------------------------------------------|
B|-1---3---1---3---3-------------------------------------------------|
G|-0---0---0---0---2-------------------------------------------------|
D|-2---2---2---2---0-------------------------------------------------|
A|-0---3---0---3-----------------------------------------------------|
E|-------------------------------------------------------------------| 
OR
    Am7    C9 Am7  C   D   G
e|-----3---3---3---3---5---3-----------------------------------------|
B|-0h1-1---1---1---1---3---3-----------------------------------------|
G|-0---0---0---0---0---0---0-----------------------------------------|
D|-2---2---2---2---2---4---0-----------------------------------------|
A|-0---0---3---0---3---5---2-----------------------------------------|
E|-------------------------3-----------------------------------------| 
Solo:
   G Dsus Am7  C9 Dsus G Dsus Am7  C9 Dsus
e|-3---3---3---3---3---3---3---3---3---3-----------------------------|
B|-3---3---1---3---3---3---3---1---3---3-----------------------------|
G|-0---2---0---0---2---0---2---0---0---2-----------------------------|
D|-0---0---2---2---0---0---0---2---2---0-----------------------------|
A|-2-------0---3-------2-------0---3---------------------------------|
E|-3-------------------3---------------------------------------------| 
OR
e|-10-10-10-8-7-------10-10-10-8-7-----------------------------------|
B|--------------8/10~--------------8~--------------------------------|
G|-------------------------------------------------------------------|
D|-------------------------------------------------------------------|
A|-------------------------------------------------------------------|
E|-------------------------------------------------------------------| 
e|-10-10-10-8-7------------------------------------------------------|
B|--------------8~-----------------3---3-----------------------------|
G|-----------------7/9\7-5-4/2-2/4---4---4---------------------------|
D|-------------------------------------------------------------------|
A|-------------------------------------------------------------------|
E|-------------------------------------------------------------------| 
e|-------------------------------------------------------------------|
B|-----3-----5-----7-----8---8------10-------12-------13-------15----|
G|-------------------------------------------------------------------|
D|-2/4---4/5---5/7---7/9---9---9/10----10/12----12/14----14/16-------|
A|-------------------------------------------------------------------|
E|-------------------------------------------------------------------| 
Chorus 2:
   G Dsus Am7 C9 Dsus Em D/F# Am7  C9 Dsus
e|-3---3---3---3---3---3---3---3---3---3-----------------------------|
B|-3---3---1---3---3---3---3---1---3---3-----------------------------|
G|-0---2---0---0---2---0---2---0---0---2-----------------------------|
D|-0---0---2---2---0---2---0---2---2---0-----------------------------|
A|-2-------0---3-------2---0---0---3---------------------------------|
E|-3-------------------0---2-----------------------------------------| 
OR
   G  D/G Dsus D    Am7    C   D   Em D/E Dsus D    Am7    C   D
e|-3---2---3---2-------3---3---5---3---2---3---2-------3---3---5-----|
B|-3---3---3---3---0h1-1---1---3---3---3---3---3---0h1-1---1---3-----|
G|-0---0---2---2---0---0---0---0---0---0---2---2---0---0---0---0-----|
D|-0---0---0---0---2---2---2---4---2---0---0---0---2---2---2---4-----|
A|-2---0-----------0---0---3---5---2---2-----------0---3---3---5-----|
E|-3---3---------------------------0---0-----------------------------| 
Chorus 3:
   G Dsus Am7  C9 Dsus G Dsus Am7  C9 Dsus
e|-3---3---3---3---3---3---3---3---3---3-----------------------------|
B|-3---3---1---3---3---3---3---1---3---3-----------------------------|
G|-0---2---0---0---2---0---2---0---0---2-----------------------------|
D|-0---0---2---2---0---0---0---2---2---0-----------------------------|
A|-2-------0---3-------2-------0---3---------------------------------|
E|-3-------------------3---------------------------------------------| 
   G Dsus Am7  C9 Dsus G Dsus Am7  C9 Dsus
e|-3---3---3---3---3---3---3---3---3---3-----------------------------|
B|-3---3---1---3---3---3---3---1---3---3-----------------------------|
G|-0---2---0---0---2---0---2---0---0---2-----------------------------|
D|-0---0---2---2---0---0---0---2---2---0-----------------------------|
A|-2-------0---3-------2-------0---3---------------------------------|
E|-3-------------------3---------------------------------------------| 
OR
e|----------------------------------10-------------------------------|
B|-7---8---10---8---8p7-----7---8---8--------------------------------|
G|-7-7---7----7---7-----9-7-7-7---7-7--------------------------------|
D|-------------------------------------------------------------------|
A|-------------------------------------------------------------------|
E|-------------------------------------------------------------------| 
e|-10-8-7---8p7------------------------------------------------------|
B|-8--8-8-8-----10-8-----8---8-10-8-10-10^12v10-8--------------------|
G|-7--7-7------------7/9---9-----------------------------------------|
D|-------------------------------------------------------------------|
A|-------------------------------------------------------------------|
E|-------------------------------------------------------------------|

e|----------------------------10-10-10\8--8--7-5-3-2-----------------|
B|-7---8---10p8---8---8p7-----12-12-12\10-10-8-7-5-3-----------------|
G|-7-7---7------7---7-----9-7----------------------------------------|
D|-------------------------------------------------------------------|
A|-------------------------------------------------------------------|
E|-------------------------------------------------------------------| 
e|---3p2---3p2---3p2---3p2---3p2-------------------------------------|
B|-3-----3-----3-----3-----3-----3-----------------------------------|
G|-------------------------------------------------------------------|
D|-------------------------------------------------------------------|
A|-------------------------------------------------------------------|
E|-------------------------------------------------------------------| 
e|-------------------------------------------------------------------|
B|-----3-3\1-0-0h1p0-----------------3-3-----------------------------|
G|-2/4---4\2---------2-0-----0-2-2/4---------------------------------|
D|-----------------------0h2-----------------------------------------|
A|-------------------------------------------------------------------|
E|-------------------------------------------------------------------| 
e|-----3-3-5-3-5/7-7-7-7-8--8-/10-10-10\8--7-------------------------|
B|-3-5-----------------8-10-10/12-12-12\10-8-------------------------|
G|-------------------------------------------------------------------|
D|-------------------------------------------------------------------|
A|-------------------------------------------------------------------|
E|-------------------------------------------------------------------| 
e|-8p7---------------------------------------10-------10-------------|
B|-----10-8-----8-10-8-10-10^12v10-8-7---8--------8------------------|
G|----------7/9----------------------7-7---7----7---7----------------|
D|-------------------------------------------------------------------|
A|-------------------------------------------------------------------|
E|-------------------------------------------------------------------| 
e|-10\8--8--8-\7-7-7-7---8p7-----------------------------------------|
B|-12\10-10-10\8-8-8-8-8-----10-8-7---8---8p7------------------------|
G|--------------------------------7-7---7-----9-7-----7--------------|
D|------------------------------------------------7h9---9------------|
A|-------------------------------------------------------------------|
E|-------------------------------------------------------------------| 
e|------------------------------------------------10-----------------|
B|-----8------10-------12-12-12-12\10-10-10-8-7-8-8------------------|
G|--------------------------------------------7-7-7------------------|
D|-7/9---9/10----10/12----12-12-12\10-10-10-9------------------------|
A|-------------------------------------------------------------------|
E|-------------------------------------------------------------------| 
| /  slide up
| \  slide down
| h  hammer-on
| p  pull-off
| ~  vibrato
| +  harmonic
| x  Mute note
| ^  Bend up
| v  Bend down

Click HERE To Download PDF

9 comments:

Kenneth Browning said...

Hey!!! That was an Awesome video!!! Great job, both of you guys!!! I was wondering... This may take a while and it may be a bit much to ask, but um... if you could... could you tab the ending solo part? It sounds so Amazing and I really do want to learn it!!! I would really appreciate it if you did that!!!God Bless and keep up the Amazing work for Our Awesome God!!!

Graham Choo said...

Hey Kenneth, actually the solo at the end was impromptu, just played whatever came to mind. Didn't tab it cause it's not official in that sense. But if you want, I could tab it for you. Just tell me your e-mail address and I'll send a .pdf file over when I'm done tabbing it :)

Kenneth Browning said...

Thanks soooo much!!! I have also seen your other videos and you are really an Amazing guitarist!!! I learned two other songs from you. I think that they were "To Zanarkand" and "Eternity Memory of LightWaves." I have a little bit of trouble in Eternity once it gets to that really fast part during the bridge. It's hard, but it still sounds pretty Cool!!! Well, whenever you finish tabbing it, send it to armsofsorrow777@yahoo.com and thanks again!!! ;)

Rachel said...

heyy! oh my gosh i love your videos:]]] great work!!! i'm a beginner and trying to learn new worship songs. and i was wondering if you can help me through causee i needed more help. whats your email? mine is rachelleex3@hotmail.com i was wondering if you can help me out. Thanks alotttt, and keep up with the great workkk for God.:]]]]

Isaac said...

Awesome job on the video. Sounded Great! I have a favor to ask. A friend and I are attempting to do the duet, and the instrucional video was very helpful. But we are having a hard time figuring out your strumming pattern. Can you help us out? Please.

God Bless.

Graham Choo said...

Hey Isacc, I must admit that the strumming pattern taught in the instruction video is a little harder than the standard ones.
If it helps, you can refer to the pdf at the bottom of the post which indicates the strumming patterns and which ones to play at which chords.
Hope that helps!

Isaac said...

Oh, I'm sorry. I meant your brother's. If you could help me out, that would be great. Thanks.

Graham Choo said...

Hey Issac, I pluck for the verse, so you can read which strings to pluck from the tabs. The same goes for the solo.
I strum for the chorus with a D UDUD UDUD DU strumming pattern.

Isaac said...

Alright! Thank you so much. I'm going to start pratcing right away. You've helped so much. Thanks agagin