Sunday, March 23, 2008

Reveal

RevealA worship song by By The Tree. In Romans 1:20, Paul tells his audience, "For since the creation of the world God's invisible qualities—his eternal power and divine nature—have been clearly seen, being understood from what has been made, so that men are without excuse."

Indeed God has revealed Himself to us through His creation. Nature with all its splendor and intricacies, speak of a creator God, and not one made by mere chance. And to those who believe in God through Jesus, we enjoy the intimacy of a relationship with God. And it is through this relationship that God is revealed more so to us, as we experience His love, forgiveness, power, and indwelling through the Holy Spirit. Lord here I am, come and take my soul, come and take everything!





-----------------------------------------------------------------
REVEAL – By The Tree
-----------------------------------------------------------------
Tabbed by: Graham Choo
Email: da_tweens@yahoo.co.uk

Tuning: Standard
Intro:
   C  Am7  F   G   C
e|-0---0---1---3---0---------------------------------------------|
B|-1---1---1---3---1---------------------------------------------|
G|-0---0---2---0---0---------------------------------------------|
D|-2---2---3---0---2---------------------------------------------|
A|-3---0---3---2---3---------------------------------------------|
E|---------1---3-------------------------------------------------| 
OR
e|---------------------------------------------------------------|
B|-3h5-5-3-5~-3-5-3-5~-3h5-5-3-5~-3-5-3-5/8~---------------------|
G|---------------------------------------------------------------|
D|---------------------------------------------------------------|
A|---------------------------------------------------------------|
E|---------------------------------------------------------------| 

e|---------------------------------------------------------------|
B|-3h5-5-3-5~-3-5-3-5~-3h5-5-3-5~-3-5-3-5/8~---------------------|
G|---------------------------------------------------------------|
D|---------------------------------------------------------------|
A|---------------------------------------------------------------|
E|---------------------------------------------------------------| 
e|---------------------------------------------------------------|
B|-3h5-5-3-5~-3-5-3-5~-5h8-8-5-8~-5-8-5-8~-----------------------|
G|---------------------------------------------------------------|
D|---------------------------------------------------------------|
A|---------------------------------------------------------------|
E|---------------------------------------------------------------| 
e|---------------------------------------------------------------|
B|-3h5-5-3-5~-3-5-3-5~-5/6-5-6-5---6p5---------8-8~--------------|
G|-------------------------------5-----7-5-7/9-------------------|
D|---------------------------------------------------------------|
A|---------------------------------------------------------------|
E|---------------------------------------------------------------| 
Verse 1:
   F   G  Am7  G   F   G   C
e|-1---3---0---3---1---3---0-------------------------------------|
B|-1---3---1---3---1---3---1-------------------------------------|
G|-2---0---0---0---2---0---0-------------------------------------|
D|-3---0---2---0---3---0---2-------------------------------------|
A|-3---0---0---0---3---0---3-------------------------------------|
E|-1---3-------3---1---3-----------------------------------------|
OR
   G      Am7      G       F       G       
e|-----------------------------0---------------------------------|
B|-----0-------1-------0---------1-----0-------------------------|
G|-------2-------0-------2---0-----------2-----------------------|
D|---0-------2-------0-----3---------0---------------------------|
A|---------0-----------------------------------------------------|
E|-3---------------3---------------3-----------------------------| 
   C             C
e|---------------------------------------------------------------|
B|-------1-------------1-----------------------------------------|
G|-----0---0---0-----0---0---0-----------------------------------|
D|---2-------2-----2-------2-------------------------------------|
A|-3-------------3-----------------------------------------------|
E|---------------------------------------------------------------| 
Pre-Chorus:
   Dm  Em  F   G
e|-1---0---1---3-------------------------------------------------|
B|-3---0---1---3-------------------------------------------------|
G|-2---0---2---0-------------------------------------------------|
D|-0---2---3---0-------------------------------------------------|
A|-----2---3---0-------------------------------------------------|
E|-----0---1---3-------------------------------------------------| 
OR
  Dm7            Em            F             G
e|-------1-------------3-------------0---------------------------|
B|-----1---1---1-----0---0---0-----1---1---1-------1-------------|
G|---2-------2-----0-------0-----0-------0-------0---0-----------|
D|-0-------------2-------------3---------------0-----------------|
A|---------------------------------------------------------------|
E|-------------------------------------------3-------------------| 
Chorus 1:
   C   Dm  F   C   Dm  F  Am7  G
e|-0---1---1---0---1---1---0---3---------------------------------|
B|-1---3---1---1---3---1---1---3---------------------------------|
G|-0---2---2---0---2---2---0---0---------------------------------|
D|-2---0---3---2---0---3---2---0---------------------------------|
A|-3-------3---3-------3---0---0---------------------------------|
E|---------1-----------1-------3---------------------------------| 
OR
   C  Dm7  F   C  Dm7  F  Am7  G
e|-3---1---0---3---1---0---0---3---------------------------------|
B|-1---1---1---1---1---1---1---0---------------------------------|
G|-0---2---0---0---2---0---0---0---------------------------------|
D|-2---0---3---2---0---3---2---0---------------------------------|
A|-3-----------3-----------0---2---------------------------------|
E|-----------------------------3---------------------------------| 
Verse 2:
   F   G  Am7  G   F   G   C
e|-1---3---0---3---1---3---0-------------------------------------|
B|-1---3---1---3---1---3---1-------------------------------------|
G|-2---0---0---0---2---0---0-------------------------------------|
D|-3---0---2---0---3---0---2-------------------------------------|
A|-3---0---0---0---3---0---3-------------------------------------|
E|-1---3-------3---1---3-----------------------------------------|
OR
   F       G      Am7      G       F       G       
e|-----0-------------------------------0-------------------------|
B|-------1-----0-------1-------0---------1-----0-----------------|
G|---0-----------2-------0-------2---0-----------2---------------|
D|-3---------0-------2-------0-----3---------0-------------------|
A|-----------------0---------------------------------------------|
E|---------3---------------3---------------3---------------------|
   C             C
e|---------------------------------------------------------------|
B|-------1-------------1-----------------------------------------|
G|-----0---0---0-----0---0---0-----------------------------------|
D|---2-------2-----2-------2-------------------------------------|
A|-3-------------3-----------------------------------------------|
E|---------------------------------------------------------------| 
Pre-Chorus
Chorus 2:
   C   Dm  F  Am7  G   C   Dm  F  Am7  G
e|-0---1---1---0---3---0---1---1---0---3-------------------------|
B|-1---3---1---1---3---1---3---1---1---3-------------------------|
G|-0---2---2---0---0---0---2---2---0---0-------------------------|
D|-2---0---3---2---0---2---0---3---2---0-------------------------|
A|-3-------3---0---0---3-------3---0---0-------------------------|
E|---------1-------3-----------1-------3-------------------------| 
OR
   C  Dm7  F  Am7  G   C  Dm7  F  Am7  G
e|-3---1---0---0---3---3---1---0---0---3-------------------------|
B|-1---1---1---1---0---1---1---1---1---0-------------------------|
G|-0---2---0---0---0---0---2---0---0---0-------------------------|
D|-2---0---3---2---0---2---0---3---2---0-------------------------|
A|-3-----------0---2---3-----------0---2-------------------------|
E|-----------------3-------------------3-------------------------| 
Bridge:
  Am7  Em  F  Am7  Em  F   G
e|-0---0---1---0---0---1---3-------------------------------------|
B|-1---0---1---1---0---1---3-------------------------------------|
G|-0---0---2---0---0---2---0-------------------------------------|
D|-2---2---3---2---2---3---0-------------------------------------|
A|-0---2---3---0---2---3---0-------------------------------------|
E|-----0---1-------0---1---3-------------------------------------| 
OR
  Am7  Em  F  Am7  Em  F   G
e|-0---3---0---0---3---0---3-------------------------------------|
B|-1---0---1---1---0---1---0-------------------------------------|
G|-0---0---0---0---0---0---0-------------------------------------|
D|-2---2---3---2---2---3---0-------------------------------------|
A|-0-----------0-----------2-------------------------------------|
E|-------------------------3-------------------------------------| 
Interlude:
   C   Dm  F  Am7  G
e|-0---1---1---0---3---------------------------------------------|
B|-1---3---1---1---3---------------------------------------------|
G|-0---2---2---0---0---------------------------------------------|
D|-2---0---3---2---0---------------------------------------------|
A|-3-------3---0---0---------------------------------------------|
E|---------1-------3---------------------------------------------| 
OR
   C            Dm7           F            Am7  G
e|-------3-------------1------------0-------0---3----------------|
B|-----1---1---1-----1--1---1-----1---1---1-1---0----------------|
G|---0-------0-----2------2-----0-------0---0---0----------------|
D|---------------0------------3-------------2---0----------------|
A|-3----------------------------------------0---2----------------|
E|----------------------------------------------3----------------|
Chorus 2 2x
| /  slide up
| \  slide down
| h  hammer-on
| p  pull-off
| ~  vibrato
| +  harmonic
| x  Mute note

Click HERE To Download PDF

4 comments:

joanne said...

hello! wonder if you have the mp3 file for this song? i really like it!
joanne

Graham Choo said...

Hey Joanne, I do! Just gimme your email address, and i'll send it over :)

oblivion said...
This comment has been removed by the author.
oblivion said...

hey liked the song too. tho' i must say e beginning sounded quite like switchfoot's "learning to breathe". thanks though it was ministering..