Wednesday, April 9, 2008

Walk

Walk (LP Version)A worship song by By The Tree. In Galatians 3:22-24, Paul tells the Galatian church, "But the Scripture declares that the whole world is a prisoner of sin, so that what was promised, being given through faith in Jesus Christ, might be given to those who believe. Before this faith came, we were held prisoners by the law, locked up until faith should be revealed. So the law was put in charge to lead us to Christ that we might be justified by faith."

Paul argues with the Galatians as to why there is no contradiction between the Law and God's promises. The Old Testament laws in fact, leads us to faith in Christ. And it is this faith in Christ that justifies us before God, that gives us sonship under God. Indeed when we put our faith in Jesus, a miracle happens. We are justified and become sons of God. It is by His grace, that we can be saved. If we just walk away from our old ways, if we just close our eyes and pray for Jesus to be Lord over our lives.





-----------------------------------------------------------------
WALK – By The Tree
-----------------------------------------------------------------
Tabbed by: Graham Choo
Email: da_tweens@yahoo.co.uk

Tuning: Standard (Capo 5th Fret)
Verse 1:
   C  C/B  Am  F   C  C/B  Am  F   C  C/B  Am  F
e|-0---0---0---0---0---0---0---0---0---0---0---0-----------------|
B|-1---3---1---1---1---3---1---1---1---3---1---1-----------------|
G|-0---0---2---2---0---0---2---2---0---0---2---2-----------------|
D|-2---0---2---3---2---0---2---3---2---0---2---3-----------------|
A|-3---2---0-------3---2---0-------3---2---0---------------------|
E|---------------------------------------------------------------| 
OR
(Capo 3rd Fret)
   D  A/C# Bm      G  D/G  D  A/C# Bm      G  D/G
e|-0---0---2---5---3---2---0---0---2---5---3---2-----------------|
B|-3---2---3---3---3---3---3---2---3---3---3---3-----------------|
G|-2---2---2---2---0---0---2---2---2---2---0---0-----------------|
D|-0---0---4---4---0---0---0---0---4---4---0---0-----------------|
A|-----4---2---2---2---0-------4---2---2---2---2-----------------|
E|-----------------3---3-------------------3---3-----------------| 
   D  A/C# Bm      G  D/G
e|-0---0---2---5---3---2-----------------------------------------|
B|-3---2---3---3---3---3-----------------------------------------|
G|-2---2---2---2---0---0-----------------------------------------|
D|-0---0---4---4---0---0-----------------------------------------|
A|-----4---2---2---2---0-----------------------------------------|
E|-----------------3---3-----------------------------------------| 
Chorus:
   C   Am  F   G   C   Am  F   G
e|-0---0---0---3---0---0---0---3---------------------------------|
B|-1---1---1---3---1---1---1---3---------------------------------|
G|-0---2---2---0---0---2---2---0---------------------------------|
D|-2---2---3---0---2---2---3---0---------------------------------|
A|-3---0-------0---3---0-------0---------------------------------|
E|-------------3---------------3---------------------------------| 
OR
   D   Bm  G  D/G Asus D   Bm  G  D/G Asus
e|-0---2---3---2---0---0---2---3---2---0-------------------------|
B|-3---3---3---3---3---3---3---3---3---3-------------------------|
G|-2---2---0---0---0---2---2---0---0---0-------------------------|
D|-0---4---0---0---2---0---4---0---0---2-------------------------|
A|-----2---2---0---0-------2---2---0---0-------------------------|
E|---------3---3---------------3---3-----------------------------| 
Interlude:
   C  C/B  Am  F
e|-0---0---0---0-------------------------------------------------|
B|-1---3---1---1-------------------------------------------------|
G|-0---0---2---2-------------------------------------------------|
D|-2---0---2---3-------------------------------------------------|
A|-3---2---0-----------------------------------------------------|
E|---------------------------------------------------------------| 
OR
e|---------------------------------------------------------------|
B|---------------------------------------------------------------|
G|-------10-------10-12^14v12^14v12-10---------------------------|
D|-10h12----10h12----------------------12------------------------|
A|---------------------------------------------------------------|
E|---------------------------------------------------------------| 
e|---------------------------------------------------------------|
B|---------------------------------------------------------------|
G|-------10-------10-12^14-12^14v12-10---------------------------|
D|-10h12----10h12----------------------12------------------------|
A|---------------------------------------------------------------|
E|---------------------------------------------------------------| 
e|---------------------------------------------------------------|
B|---------------------------------------------------------------|
G|-------10-------10-12/14-12-10-10/12~--------------------------|
D|-10h12----10h12------------------------------------------------|
A|---------------------------------------------------------------|
E|---------------------------------------------------------------| 
e|---------------------------------------------------------------|
B|---------------------------------------------------------------|
G|---------------------------------------------------------------|
D|-------10-10h12p10---------------------------------------------|
A|-10h12-------------12-10\8----10/12~---------------------------|
E|---------------------------10----------------------------------| 
Verse 2:
   C  C/B  Am  F   C  C/B  Am  F
e|-0---0---0---0---0---0---0---0---------------------------------|
B|-1---3---1---1---1---1---1---1---------------------------------|
G|-0---0---2---2---0---0---2---2---------------------------------|
D|-2---0---2---3---2---0---2---3---------------------------------|
A|-3---2---0-------3---2---0-------------------------------------|
E|---------------------------------------------------------------| 
OR
   Bm      G  D/G  D  A/C# Bm      G  D/G
e|-2---5---3---2---0---0---2---5---3---2-------------------------|
B|-3---3---3---3---3---2---3---3---3---3-------------------------|
G|-2---2---0---0---2---2---2---2---0---0-------------------------|
D|-4---4---0---0---0---0---4---4---0---0-------------------------|
A|-2---2---2---0-------4---2---2---2---2-------------------------|
E|---------3---3-------------------3---3-------------------------| 
Pre-Chorus:
   G   F   G   F   G
e|-3---0---3---0---3---------------------------------------------|
B|-3---1---3---1---3---------------------------------------------|
G|-0---2---0---2---0---------------------------------------------|
D|-0---3---0---3---0---------------------------------------------|
A|-0-------0-------0---------------------------------------------|
E|-3-------3-------3---------------------------------------------| 
OR
  Asus G  D/G Asus G  Asus
e|-0---3---2---0---3---0-----------------------------------------|
B|-3---3---3---3---3---3-----------------------------------------|
G|-0---0---0---0---0---0-----------------------------------------|
D|-2---0---0---2---0---2-----------------------------------------|
A|-0---2---0---0---2---0-----------------------------------------|
E|-----3---3-------3---------------------------------------------| 
Chorus
Bridge:
   Em  C   D   Em  C   D   Em  C   D   C   D   G
e|-0---0---0---0---0---0---0---0---0---0---0---3-----------------|
B|-0---1---3---0---1---3---0---1---3---1---3---3-----------------|
G|-0---0---0---0---0---0---0---0---0---0---0---0-----------------|
D|-2---2---4---2---2---4---2---2---4---2---4---0-----------------|
A|-2---3---5---2---3---5---2---3---5---3---5---0-----------------|
E|-0-----------0-----------0-------------------3-----------------| 
OR
  F#m  D   E  F#m  D   E  F#m  D   E   D   E   A
e|-2---0---0---2---0---0---2---0---0---0---0---0-----------------|
B|-2---3---0---2---3---0---2---3---0---3---0---0-----------------|
G|-2---2---1---2---2---1---2---2---1---2---1---2-----------------|
D|-2---0---2---2---0---2---2---0---2---0---2---2-----------------|
A|-4-------2---4-------2---4-------2-------2---0-----------------|
E|-2-------0---2-------0---2-------0-------0---------------------| 
Verse 3:
   C  C/B  Am  F
e|-0---0---0---0-------------------------------------------------|
B|-1---3---1---1-------------------------------------------------|
G|-0---0---2---2-------------------------------------------------|
D|-2---0---2---3-------------------------------------------------|
A|-3---2---0-----------------------------------------------------|
E|---------------------------------------------------------------| 
OR
   D  A/C# Bm      G
e|-0---0---2---5---3---------------------------------------------|
B|-3---2---3---3---3---------------------------------------------|
G|-2---2---2---2---0---------------------------------------------|
D|-0---0---4---4---0---------------------------------------------|
A|-----4---2---2---2---------------------------------------------|
E|-----------------3---------------------------------------------| 
Chorus
   C   Am  F   G
e|-0---0---0---3-------------------------------------------------|
B|-1---1---1---3-------------------------------------------------|
G|-0---2---2---0-------------------------------------------------|
D|-2---2---3---0-------------------------------------------------|
A|-3---0-------0-------------------------------------------------|
E|-------------3-------------------------------------------------| 
OR
   D   Bm  G  Asus A7
e|-0---2---3---0---0---------------------------------------------|
B|-3---3---3---3---2---------------------------------------------|
G|-2---2---0---0---0---------------------------------------------|
D|-0---4---0---2---2---------------------------------------------|
A|-----2---2---0---0---------------------------------------------|
E|---------3-----------------------------------------------------| 
Outro:
   C  C/B  Am  F
e|-0---0---0---0-------------------------------------------------|
B|-1---3---1---1-------------------------------------------------|
G|-0---0---2---2-------------------------------------------------|
D|-2---0---2---3-------------------------------------------------|
A|-3---2---0-----------------------------------------------------|
E|---------------------------------------------------------------| 
OR
e|---------------------------------------------------------------|
B|---------------------------------------------------------------|
G|-------10-------10-12^14v12^14v12-10---------------------------|
D|-10h12----10h12----------------------12------------------------|
A|---------------------------------------------------------------|
E|---------------------------------------------------------------| 
e|---------------------------------------------------------------|
B|---------------------------------------------------------------|
G|-------10-------10-12^14-12^14v12-10---------------------------|
D|-10h12----10h12----------------------12------------------------|
A|---------------------------------------------------------------|
E|---------------------------------------------------------------| 
e|---------------------------------------------------------------|
B|---------------------------------------------------------------|
G|-------10-------10-10h12-10------------------------------------|
D|-10h12----10h12----10----10-10\8-------------------------------|
A|----------------------------12\10------------------------------|
E|---------------------------------------------------------------| 
| /  slide up
| \  slide down
| h  hammer-on
| p  pull-off
| ~  vibrato
| +  harmonic
| x  Mute note
| ^  Bend up
| v  Bend down

Click HERE To Download PDF

2 comments:

mernst said...

You are so GREAT! I had tears in my eyes...through you there goes a lot of blessing out

adam brown said...

Hi again, see tthis is the site i told you i signed up to. It has some nice information about how to make money using OPP, i think you might find it interesting. here it is. bye!