Sunday, May 18, 2008

Somewhere Only We Know

Somewhere Only We KnowA song originally performed by Keane. We heard the Lifehouse cover of it over YouTube when searching for a song to perform for Valentines Day, and decided to learn it instead, since it was more acoustic-style, and we were going acoustic for that night too. As usual, Lifehouse nailed it with a simple and relaxed feel using their guitars. So here it is! We'll probably be putting up more videos of the other songs we performed that night too. Enjoy! :)



------------------------------------------------------------------------------
SOMEWHERE ONLY WE KNOW – Keane (Lifehouse Cover)
------------------------------------------------------------------------------
Tabbed by: Graham Choo
Email: da_tweens@yahoo.co.uk

Tuning: Standard (Capo 1stFret)
Intro:
   G  D/G Am7 Dsus G  D/G Am7 Dsus
e|-3---2---3---3---3---2---3---3---------------------------------|
B|-3---3---1---3---3---3---1---3---------------------------------|
G|-0---0---0---2---0---0---0---2---------------------------------|
D|-0---0---2---0---0---0---2---0---------------------------------|
A|-2---0---0-------2---0---0-------------------------------------|
E|-3---3-----------3---3-----------------------------------------|
Verse:
   G  D/G Am7 Dsus G  D/G Am7 Dsus
e|-3---2---3---3---3---2---3---3---------------------------------|
B|-3---3---1---3---3---3---1---3---------------------------------|
G|-0---0---0---2---0---0---0---2---------------------------------|
D|-0---0---2---0---0---0---2---0---------------------------------|
A|-2---0---0-------2---0---0-------------------------------------|
E|-3---3-----------3---3-----------------------------------------|
Pre-Chorus 1:
   Em  Bm  C9 Dsus G  D/G Am7 Dsus
e|-3---2---3---3---3---2---3---3---------------------------------|
B|-3---3---3---3---3---3---1---3---------------------------------|
G|-0---4---0---2---0---0---0---2---------------------------------|
D|-2---4---2---0---0---0---2---0---------------------------------|
A|-2---2---3-------2---0---0-------------------------------------|
E|-0---------------3---3-----------------------------------------|
Verse
Pre-Chorus 2:
   Em  Bm  C9 Dsus Em  Bm  C9 Dsus
e|-3---2---3---3---3---2---3---3---------------------------------|
B|-3---3---3---3---3---3---3---3---------------------------------|
G|-0---4---0---2---0---4---0---2---------------------------------|
D|-2---4---2---0---2---4---2---0---------------------------------|
A|-2---2---3-------2---2---3-------------------------------------|
E|-0---------------0---------------------------------------------|
Chorus:
  Am7  G Dsus Am7  G Dsus Am7  G  Dsus C9 Dsus G   C9 Dsus C9 Dsus
e|-3---3---3---3---3---3---3---3---3---3---3---3---3---3---3---3-|
B|-1---3---3---1---3---3---1---3---3---3---3---3---3---3---3---3-|
G|-0---0---2---0---0---2---0---0---2---0---2---0---0---2---0---2-|
D|-2---0---0---2---0---0---2---0---0---2---0---0---2---0---2---0-|
A|-0---2-------0---2-------0---2-------3-------2---3-------3-----|
E|-----3-----------3-----------3---------------3-----------------|
Pre-Chorus 2
Chorus
   C9  G
e|-3---3---------------------------------------------------------|
B|-3---3---------------------------------------------------------|
G|-0---0---------------------------------------------------------|
D|-2---0---------------------------------------------------------|
A|-3---2---------------------------------------------------------|
E|-----3---------------------------------------------------------|
| /  slide up
| \  slide down
| h  hammer-on
| p  pull-off
| ~  vibrato
| +  harmonic
| x  Mute note

Click HERE To Download PDF

1 comment:

Mike said...

Thanks for tabbing this...this is one of my favorite songs!

My only other comment is that I think all the pre-chorus parts are all like pre-chorus 2 in both the Lifehouse and Keane versions. At least that's what I hear on Youtube...

Anyway, thanks for the hard work and for helping aspiring guitarists take flight.