Friday, May 23, 2008

Still

StillA worship song by Hillsong. The lyrics are taken from Psalm 46:2-3, 10 in particular, which reads, "Therefore we will not fear, though the earth give way and the mountains fall into the heart of the sea, though its waters roar and foam and the mountains quake with their surging. Selah" "'Be still, and know that I am God; I will be exalted among the nations, I will be exalted in the earth.;"

It is a comforting Psalm that speaks of how "God is our refuge and strength, an ever-present help in trouble" (v.1). Indeed, even in the midst of trouble and turmoil, God is there to help us through them. If only we would humble ourselves and be still before Him. If only we put our trust in Him, and exalt Him even in such times. He has said in His Word that He is our refuge and strength. May we find rest my soul, in Christ alone, know His power, In quietness and trust. Amen!





-----------------------------------------------------------------
STILL – Hillsong
-----------------------------------------------------------------
Tabbed by: Graham Choo
Email: da_tweens@yahoo.co.uk

Tuning: Standard
Verse:
   C  C/B  Am  F  D/F# G   Em  F   Dm  G
e|-0---0---0---1---0---3---0---1---1---3-------------------------|
B|-1---3---1---1---3---3---0---1---3---3-------------------------|
G|-0---0---2---2---2---0---0---2---2---0-------------------------|
D|-2---0---2---3---0---0---2---3---0---0-------------------------|
A|-3---2---0---3---0---2---2---3-------2-------------------------|
E|-------------1---2---3---0---1-------3-------------------------| 
Chorus 1:
   Em  F   G   C   F   G   Am  F   G   C   F   G   F
e|-0---1---3---0---1---3---0---1---3---0---1---3---1-------------|
B|-0---1---3---1---1---3---1---1---3---1---1---3---1-------------|
G|-0---2---0---0---2---0---2---2---0---0---2---0---2-------------|
D|-2---3---0---2---3---0---2---3---0---2---3---0---3-------------|
A|-2---3---2---3---3---2---0---3---2---3---3---2---3-------------|
E|-0---1---3-------1---3-------1---3-------1---3---1-------------| 
Verse
Chorus 2:
   Em  F   G   C   F   G   Am  F   G   C   F   G   C
e|-0---1---3---0---1---3---0---1---3---0---1---3---0-------------|
B|-0---1---3---1---1---3---1---1---3---1---1---3---1-------------|
G|-0---2---0---0---2---0---2---2---0---0---2---0---0-------------|
D|-2---3---0---2---3---0---2---3---0---2---3---0---2-------------|
A|-2---3---2---3---3---2---0---3---2---3---3---2---3-------------|
E|-0---1---3-------1---3-------1---3-------1---3-----------------| 
   F   G   C   F   G   Am  F   G   C   F   G   Am
e|-1---3---0---1---3---0---1---3---0---1---3---0-----------------|
B|-1---3---1---1---3---1---1---3---1---1---3---1-----------------|
G|-2---0---0---2---0---2---2---0---0---2---0---2-----------------|
D|-3---0---2---3---0---2---3---0---2---3---0---2-----------------|
A|-3---2---3---3---2---0---3---2---3---3---2---0-----------------|
E|-1---3-------1---3-------1---3-------1---3---------------------| 
Outro:
   F   G   C
e|-1---3---0-----------------------------------------------------|
B|-1---3---1-----------------------------------------------------|
G|-2---0---0-----------------------------------------------------|
D|-3---0---2-----------------------------------------------------|
A|-3---2---3-----------------------------------------------------|
E|-1---3---------------------------------------------------------| 
| /  slide up
| \  slide down
| h  hammer-on
| p  pull-off
| ~  vibrato
| +  harmonic
| x  Mute note

Click HERE To Download PDF

5 comments:

Anonymous said...

Hey, I think it would sound better with a Dm/F# instead of D/F#
but thanks for the tabs
You did a very good job

Graham Choo said...

Hey, thanks for the advice. Actually, I've tried it out, and it seems that it'd sound better with a D7/F# instead. But that's just what I think :)
It's amazing that there are so many ways to play a song. Makes playing the guitar more exciting than it looks! God bless :)

Melissa said...

I am so inspired by your brothers love and songs for the Lord. I only listen to Daniel Choo on Ytube. My children and husbend love to tune in and sit as a family and watch his newest videos. My six year old has a dream in meeting him some day. Please send our love to him and your selfs and family. God bless you both. May God look down with smiles at you guys.

Anonymous said...

What about the Intro? Any idea on how?

Graham Choo said...

Hey there, for the Intro, you can probably play C, Csus, C, Csus. Strumming pattern would be D D UDUDD DU.