Saturday, July 19, 2008

All I Need Is You

All I Need Is YouA worship song by Hillsong. In Colossians 1:15-17, Paul writes to the church of Colosse regarding the supremacy of Christ, "He is the image of the invisible God, the firstborn over all creation. For by him all things were created: things in heaven and on earth, visible and invisible, whether thrones or powers or rulers or authorities; all things were created by him and for him. He is before all things, and in him all things hold together."

Jesus is supreme over all creation, and they are created by Him and for Him. He is God, and He deserves our utmost obedience and worship. Moreover, His blood shed on the cross has reconciled all things to Himself (v. 20). It is through Him that everything is sustained. As such, Christ is and must be the focus of the gospel - the message of Christ's power to reconcile, the message of hope (v. 21-23). Indeed, You hold the universe, You hold everyone on earth. All we need is You.





-----------------------------------------------------------------
ALL I NEED IS YOU – Hillsong
-----------------------------------------------------------------
Tabbed by: Graham Choo
Email: da_tweens@yahoo.co.uk

Tuning: Standard
Intro:
  C#m F#m  A   B  C#m  E   B  C#m F#m  A   B  C#m  E   B
e|-4---0---0---0---4---0---0---4---0---0---0---4---0---0---------|
B|-5---0---0---0---5---0---0---5---0---0---0---5---0---0---------|
G|-6---2---2---4---6---1---4---6---2---2---4---6---1---4---------|
D|-6---4---2---4---6---2---4---6---4---2---4---4---2---4---------|
A|-4---4---0---2---4---2---2---4---4---0---2---4---2---2---------|
E|---------------------0---------------------------0-------------| 

Verse:
  C#m F#m  A   B  C#m  E   B  C#m F#m  A   B  C#m  E   B
e|-4---0---0---0---4---0---0---4---0---0---0---4---0---0---------|
B|-5---0---0---0---5---0---0---5---0---0---0---5---0---0---------|
G|-6---2---2---4---6---1---4---6---2---2---4---6---1---4---------|
D|-6---4---2---4---6---2---4---6---4---2---4---4---2---4---------|
A|-4---4---0---2---4---2---2---4---4---0---2---4---2---2---------|
E|---------------------0---------------------------0-------------| 

Chorus:
  F#m  A   E   B  F#m  A   E   B
e|-0---0---0---0---0---0---0---0---------------------------------|
B|-0---0---0---0---0---0---0---0---------------------------------|
G|-2---2---1---4---2---2---1---4---------------------------------|
D|-4---2---2---4---4---2---2---4---------------------------------|
A|-4---0---2---2---4---0---2---2---------------------------------|
E|---------0---------------0-------------------------------------|

Verse

Chorus 2x

Bridge 1:
  F#m  A   E   B  F#m  A   E   B
e|-0---0---0---0---0---0---0---0---------------------------------|
B|-0---0---0---0---0---0---0---0---------------------------------|
G|-2---2---1---4---2---2---1---4---------------------------------|
D|-4---2---2---4---4---2---2---4---------------------------------|
A|-4---0---2---2---4---0---2---2---------------------------------|
E|---------0---------------0-------------------------------------| 

Chorus

Interlude:
   A   E   B   A   E   B
e|-0---0---0---0---0---0-----------------------------------------|
B|-0---0---0---0---0---0-----------------------------------------|
G|-2---1---4---2---1---4-----------------------------------------|
D|-2---2---4---2---2---4-----------------------------------------|
A|-0---2---2---0---2---2-----------------------------------------|
E|-----0-----------0---------------------------------------------|

Bridge 2:
   A   E   B  F#m  A   E   B  F#m  A   E   B  F#m  A   E   B  F#m
e|-0---0---0---0---0---0---0---0---0---0---0---0---0---0---0---0-|
B|-0---0---0---0---0---0---0---0---0---0---0---0---0---0---0---0-|
G|-2---1---4---2---2---1---4---2---2---1---4---2---2---1---4---2-|
D|-2---2---4---4---2---2---4---4---2---2---4---4---2---2---4---4-|
A|-0---2---2---4---0---2---2---4---0---2---2---4---0---2---2---4-|
E|-----0---------------0---------------0---------------0---------|

Bridge 2 2x

| /  slide up
| \  slide down
| h  hammer-on
| p  pull-off
| ~  vibrato
| +  harmonic
| x  Mute note

Click HERE To Download PDF

2 comments:

Paul said...

Great tab but I think you have a typo on your Bridge 2. Just a heads up.

Graham Choo said...

Hey Paul, thanks! I spotted the typos in the F#m tabs in Bridge 2. Have amended them. Thanks!