Thursday, July 24, 2008

Marvelous Light

Marvelous LightA worship song by Charlie Hall. In 1 Corinthians 15:54-57, Paul writes, "When the perishable has been clothed with the imperishable, and the mortal with immortality, then the saying that is written will come true: 'Death has been swallowed up in victory.' 'Where, O death, is your victory? Where, O death, is your sting?' The sting of death is sin, and the power of sin is the law. But thanks be to God! He gives us the victory through our Lord Jesus Christ."

Indeed when Christ comes again, the old will become new. Our bodies will be transformed to be like His, and death will be defeated. All sin will be judged, but rendered powerless over those who believe and have been redeemed by Christ's blood, because we no longer live under the law, but under grace (Rom. 6:14). We have victory over the penalty of sin through Christ Jesus. We have victory over sin in our lives through the sanctifying work of the Holy Spirit. Therefore, let us continue to stand firm in the faith and offer ourselves for His service (v.58).

Into marvelous light I'm running, out of darkness, out of shame. By the cross You are the truth, You are the life, You are the way!





-----------------------------------------------------------------
MARVELOUS LIGHT – Charlie Hall
-----------------------------------------------------------------
Tabbed by: Graham Choo
Email: da_tweens@yahoo.co.uk

Tuning: Standard (2nd Fret)
Intro:
   A   D
e|-0---0---------------------------------------------------------|
B|-0---3---------------------------------------------------------|
G|-2---2---------------------------------------------------------|
D|-2---0---------------------------------------------------------|
A|-0-------------------------------------------------------------|
E|---------------------------------------------------------------|

Chorus:
   A   D  F#m  E   D
e|-0---0---0---0---0---------------------------------------------|
B|-0---3---0---0---3---------------------------------------------|
G|-2---2---2---1---2---------------------------------------------|
D|-2---0---4---2---0---------------------------------------------|
A|-0-------4---2-------------------------------------------------|
E|-------------0-------------------------------------------------|

Interlude:
   A   D  F#m  D
e|-0---0---0---0-------------------------------------------------|
B|-0---3---0---3-------------------------------------------------|
G|-2---2---2---2-------------------------------------------------|
D|-2---0---4---0-------------------------------------------------|
A|-0-------4-----------------------------------------------------|
E|---------------------------------------------------------------|

Verse:
   A   D   A   D
e|-0---0---0---0-------------------------------------------------|
B|-0---3---0---3-------------------------------------------------|
G|-2---2---2---2-------------------------------------------------|
D|-2---0---2---0-------------------------------------------------|
A|-0-------0-----------------------------------------------------|
E|---------------------------------------------------------------| 

Verse 

Pre-Chorus:
  F#m  E   D  F#m  E   D
e|-0---0---0---0---0---0-----------------------------------------|
B|-0---0---3---0---0---3-----------------------------------------|
G|-2---1---2---2---1---2-----------------------------------------|
D|-4---2---0---4---2---0-----------------------------------------|
A|-4---2-------4---2---------------------------------------------|
E|-----0-----------0---------------------------------------------| 

Chorus

Intro

Verse

Pre-Chorus

Chorus 2x

Bridge:
   A   D  F#m  E   D
e|-0---0---0---0---0---------------------------------------------|
B|-0---3---0---0---3---------------------------------------------|
G|-2---2---2---1---2---------------------------------------------|
D|-2---0---4---2---0---------------------------------------------|
A|-0-------4---2-------------------------------------------------|
E|-------------0-------------------------------------------------|

Bridge

Pre-Chorus

Chorus 2x

Bridge

| /  slide up
| \  slide down
| h  hammer-on
| p  pull-off
| ~  vibrato
| +  harmonic
| x  Mute note

Click HERE To Download PDF

2 comments:

Tyler Yim said...

hey dan! my names tyler yim and im truly inspired by your music and your eagerness to reach out! You probably hear this all the time but your guitar and vocal skills are great. But i was wondering if you could tell me how you made a website like this because i wanted to start a charity for orphanages in China. If you could let me know on what site or how to set-up a webpage I'd be thrilled. Keep up the good work. my email is minoo_yim@Hotmail.com. thanks

Mary said...

Thank you for posting this! Bless you, brother!