Monday, August 25, 2008

All The Earth Will Sing Your Praises

All The Earth Will Sing Your PraisesA worship song by Paul Baloche. In 1 Corinthians 15:20-24, we read of Paul's argument against the Corinthian church's uncertainty of resurrection. If there is no resurrection of the dead, then Christ has not been raised! And if Christ has not been raised, then our faith is futile and we are indeed sad beings for believing in a lie (1 Corinthians 15:17-19). And so, Christ's resurrection is pivotal to the Christian faith. Christ will come again, and when He does, we will be raised with imperishable bodies (1 Corinthians 15:42). Just as the firstfuits indicate an inevitable harvest, so does Christ's resurrection herald our resurrection, when He comes again. And Christ will regin supreme with everything put under Him. (1 Corinthians 15:28)

Indeed we have hope because Christ lived, died for our sins, and rose for the grave. We are no longer enemies of God, but by Chrit's redeeming blood, we are now called His children. We have every reason to sing His praises. All the earth will sing Your praises!





---------------------------------------------------------------------------------
ALL THE EARTH WILL SING YOUR PRAISES – Paul Baloche
---------------------------------------------------------------------------------
Tabbed by: Graham Choo
Email: da_tweens@yahoo.co.uk

Tuning: Standard (Capo 1st Fret)
Chorus:
   E   B  C#m  A   E   B  C#m  A   E   B  C#m  A   E   B  C#m  A
e|-0---0---0---0---0---0---0---0---0---0---0---0---0---0---0---0-|
B|-0---0---0---0---0---0---0---0---0---0---0---0---0---0---0---0-|
G|-1---4---6---2---1---4---6---2---1---4---6---2---1---4---6---2-|
D|-2---4---6---2---2---4---6---2---2---4---6---2---2---4---6---2-|
A|-2---2---4---0---2---2---4---0---2---2---4---0---2---2---4---0-|
E|-0---------------0---------------0---------------0-------------|

Interlude:
   E   B  C#m  A  F#m  A   E   B  C#m  A  F#m  A
e|-0---0---0---0---0---0---0---0---0---0---0---0-----------------|
B|-0---0---0---0---0---0---0---0---0---0---0---0-----------------|
G|-1---4---6---2---2---2---1---4---6---2---2---2-----------------|
D|-2---4---6---2---4---2---2---4---6---2---4---2-----------------|
A|-2---2---4---0---4---0---2---2---4---0---4---0-----------------|
E|-0-----------------------0-------------------------------------|

Verse:
   E   B  C#m  A   E   B  C#m  A
e|-0---0---0---0---0---0---0---0---------------------------------|
B|-0---0---0---0---0---0---0---0---------------------------------|
G|-1---4---6---2---1---4---6---2---------------------------------|
D|-2---4---6---2---2---4---6---2---------------------------------|
A|-2---2---4---0---2---2---4---0---------------------------------|
E|-0---------------0---------------------------------------------|

Pre-Chorus:
  F#m  A  C#m  A  F#m  B
e|-0---0---0---0---0---0-----------------------------------------|
B|-0---0---0---0---0---0-----------------------------------------|
G|-2---2---6---2---2---4-----------------------------------------|
D|-4---2---6---2---4---4-----------------------------------------|
A|-4---0---4---0---4---2-----------------------------------------|
E|---------------------------------------------------------------|

Chorus

Interlude

| /  slide up
| \  slide down
| h  hammer-on
| p  pull-off
| ~  vibrato
| +  harmonic
| x  Mute note

Click HERE To Download PDF

4 comments:

rock said...

Hello, how did you do the Interlude bit? Did you use your palm to silent the sound while changing chords?

Thank you!

Graham Choo said...

Hey Rock, the interlude's a mix between strumming and palm muting. So for example, after 2 downstrokes of the E, there's a palm mute, then 2 downstrokes for the B, and so on.

Here's the summary:
E - D D (mute)
B - D D
C#m - D D (mute)
A - D D
F#m - D DU UDU
A - D DU UDU

Hope that helps! :)

rock said...

Thanks a lot! So it is palm muting after all :) Need to learn that technique.

I'm trying
E- D D
B- (mute D) UDU
C#m - D D
A - (mute D) UDU

Seems to work!

TaiwanHarvest said...

Hey Graham,
What a blessing you are, dude. One of the things I struggle with learning acoustic worship guitar is finding the right strum pattern for a song I want to learn ... so to come across your site is a real blessing. May the Lord reward you richly for your diligence in serving Him.