Tuesday, September 2, 2008

Lord Of Lords

Lord Of LordsA worship song by Hillsong. In Philippians 1:20-21, Paul desires that Christ be exalted in his body, whether through life or death. That's what we've been called to do. "The chief end of man is to glorify God, and enjoy Him forever." And one of the ways we glorify God is through the praises we lift up to Him. We declare His glory among the nations (1 Chronicles 16:24). We declare that He is God.

For this very heart you've shaped for your pleasure, the purpose to lift Your name high. Call all the saints to join the song, worship and praise Him the Lord of lords!





-----------------------------------------------------------------
LORD OF LORDS – Hillsong
-----------------------------------------------------------------
Tabbed by: Graham Choo
Email: da_tweens@yahoo.co.uk

Tuning: Standard
Intro:
  C#m  E   B   A  C#m  E   B   A  C#m  E   B
e|-0---0---0---0---0---0---0---0---0---0---0---------------------|
B|-0---0---0---0---0---0---0---0---0---0---0---------------------|
G|-6---9---4---2---6---9---4---2---6---9---4---------------------|
D|-6---9---4---2---6---9---4---2---6---9---4---------------------|
A|-4---7---2---0---4---7---2---0---4---7---2---------------------|
E|---------------------------------------------------------------|

Verse 1:
  C#m  E   B   A  C#m  E   B   A   E   B  C#m  A   E   B
e|-0---0---0---0---0---0---0---0---0---0---0---0---0---0---------|
B|-0---0---0---0---0---0---0---0---0---0---0---0---0---0---------|
G|-6---9---4---2---6---9---4---2---1---4---6---2---1---4---------|
D|-6---9---4---2---6---9---4---2---2---4---6---2---2---4---------|
A|-4---7---2---0---4---7---2---0---2---2---4---0---2---2---------|
E|---------------------------------0---------------0-------------|

Verse 2:
  C#m  E   B   A  C#m  E   B   A   E   B  C#m  A   B   E  Esus
e|-0---0---0---0---0---0---0---0---0---0---0---0---0---0---0-----|
B|-0---0---0---0---0---0---0---0---0---0---0---0---0---0---0-----|
G|-6---9---4---2---6---9---4---2---1---4---6---2---4---1---2-----|
D|-6---9---4---2---6---9---4---2---2---4---6---2---4---2---2-----|
A|-4---7---2---0---4---7---2---0---2---2---4---0---2---2---2-----|
E|---------------------------------0-------------------0---0-----|

Chorus:
   A   E   B  C#m  A   A   E   B   A
e|-0---0---0---0---0---0---0---0---0-----------------------------|
B|-0---0---0---0---0---0---0---0---0-----------------------------|
G|-2---1---4---6---2---2---1---4---2-----------------------------|
D|-2---2---4---6---2---2---2---4---2-----------------------------|
A|-0---2---2---4---0---0---2---2---0-----------------------------|
E|-----0-------------------0-------------------------------------|

Verse 2

Chorus 2x

Bridge:
  C#m  B   A   E   B  C#m  B   A   E  Esus E
e|-0---0---0---0---0---0---0---0---0---0---0---------------------|
B|-0---0---0---0---0---0---0---0---0---0---0---------------------|
G|-6---4---2---1---4---6---4---2---1---2---1---------------------|
D|-6---4---2---2---4---6---4---2---2---2---2---------------------|
A|-4---2---0---2---2---4---2---0---2---2---2---------------------|
E|-------------0-------------------0---0---0---------------------|

Bridge 2x

Chorus

Outro:
   A   E   A   E
e|-0---0---0---0-------------------------------------------------|
B|-0---0---0---0-------------------------------------------------|
G|-2---1---2---1-------------------------------------------------|
D|-2---2---2---2-------------------------------------------------|
A|-0---2---0---2-------------------------------------------------|
E|-----0-------0-------------------------------------------------|

| /  slide up
| \  slide down
| h  hammer-on
| p  pull-off
| ~  vibrato
| +  harmonic
| x  Mute note

Click HERE To Download PDF

5 comments:

Anonymous said...

This is amazing and it shows that God lives and reigns in the lives and souls of many. Thanks for this and God bless you.

Author Aleja Bennett said...

You are doing this for his glory and for that you shall be blessed.

Evan said...

nice!

Anonymous said...

Buddy, I have never played guitar before and wanted to play this song in my church. This is amazingly helpful. I love what He is doing through you and greatly appreciate the effort you have put for this! Keep up the good work an may God continue to bless you!

Janah =) said...

Olá, gostei muito do video de instrução!
não entendo nada de inglês mas as notinhas deu pra compreender.. rsrs
Deus abençõe! o/