Thursday, October 30, 2008

Pour Out My Heart

Overwhelmed Live At Hume LakeA worship song by Everybodyduck. In Psalm 62:7-8, David affirms that God is his foundation in whom he can depend and seek refuge in, amongst a sinful and deceitful people. We are to trust in God instead, and pour out our hearts to Him concerning such injustice. For He will listen and reward each according to what he has done (Psalm 62:12).

We can always turn to God in our times to trouble and distress. King David often poured out his heart to God in the Psalms, for he knew that God was dependable, and that He would listen. Let us confide in God our refuge as well, to say that we love and need Him, that we're thankful and that He's wonderful to us.





-----------------------------------------------------------------
POUR OUT MY HEART – Everybodyduck
-----------------------------------------------------------------
Tabbed by: Graham Choo
Email: da_tweens@yahoo.co.uk

Tuning: Standard
Intro:
   G  Dsus Em  C9  G  Dsus Em  C9
e|-3---3---3---3---3---3---3---3---------------------------------|
B|-3---3---3---3---3---3---3---3---------------------------------|
G|-0---2---0---0---0---2---0---0---------------------------------|
D|-0---0---2---2---0---0---2---2---------------------------------|
A|-2-------2---3---2-------2---3---------------------------------|
E|-3-------0-------3-------0-------------------------------------|

Verse:
   G  Dsus Em  C9  G  Dsus Em  C9
e|-3---3---3---3---3---3---3---3---------------------------------|
B|-3---3---3---3---3---3---3---3---------------------------------|
G|-0---2---0---0---0---2---0---0---------------------------------|
D|-0---0---2---2---0---0---2---2---------------------------------|
A|-2-------2---3---2-------2---3---------------------------------|
E|-3-------0-------3-------0-------------------------------------|

Verse

Pre-Chorus:
  Am7  G   C9
e|-3---3---3-----------------------------------------------------|
B|-1---3---3-----------------------------------------------------|
G|-0---0---0-----------------------------------------------------|
D|-2---0---2-----------------------------------------------------|
A|-0---2---3-----------------------------------------------------|
E|-----3---------------------------------------------------------|

Chorus:
   G  Dsus Em  C9  G  Dsus Em  C9  G  Dsus Em  C9
e|-3---3---3---3---3---3---3---3---3---3---3---3-----------------|
B|-3---3---3---3---3---3---3---3---3---3---3---3-----------------|
G|-0---2---0---0---0---2---0---0---0---2---0---0-----------------|
D|-0---0---2---2---0---0---2---2---0---0---2---2-----------------|
A|-2-------2---3---2-------2---3---2-------2---3-----------------|
E|-3-------0-------3-------0-------3-------0---------------------|

Verse 2x

Pre-Chorus

Chorus 2x

| /  slide up
| \  slide down
| h  hammer-on
| p  pull-off
| ~  vibrato
| +  harmonic
| x  Mute note

Click HERE To Download PDF

8 comments:

Jason said...

Graham that is awesome once again. The Lord has given us us a gift with your abilities. Can't wait to get the Instructional Video.

Caliane said...

Wonderful song!
I've watched a few videos of him playing. I didn't know you had a blog dedicated only to our Father, that's really beautiful... May God bless many people through this.

Caliane said...

are you twins? one plays and the other one upload to the internet? hehe that's nice. I have a twin sister too. We love to be twins.

Graham Choo said...

Hi Caliane, thanks for the compliments.
Yeah we're twins! :)
Actually, I put up videos too. We've split the videos with him doing the Christian songs, and myself the instrumentals, with the occasional duos with Dan.
God bless

Caliane said...

Oh that's a beautiful thing, your family united in the same faith Christ! that's the greatest blessing you could ever have! I'm gonna show this blog to my twin sis, she'll love it! :D
May God bless you richly.

Anonymous said...

Beautiful! Touched my heart listening to that. Thank you!

Savu Razvan said...

I`ve been looking 4 this song 4 a really long time, and it`s great to find it ; thank you .

mel4christ said...

You and your brother have been a tremendous blessing to me. I have been learning guitar along with you two and I absolutely thank the Lord for your servant's heart. I pray His blessings upon you. Thank you for ministering to those of us all around the world, God's Word is powerful and will reach the ends of the earth this way. Praise His holy name!