Thursday, November 6, 2008

Meet With Me

Meet With MeA worship song by Ten Shekel Shirt. In the Old Testament, God met with His people in the Tent of Meeting, and even so, only the High Priest could come into His presence to atone for the sins of Israel with an animal sacrifice. The Israelites could not draw near to God because they were a sinful people, and thus could not come into the presence of a Holy God.

However, because of Christ's ultimate sacrifice on the cross for our sins, there is no longer any sacrifice for sin. It is finished. It is because of His blood that the Most Holy Place has been made accessible to us and allows us to draw near to Him (Hebrews 10:18-22). Indeed we can only meet with God because of what Jesus has done.





-----------------------------------------------------------------
MEET WITH ME – Ten Shekel Shirt
-----------------------------------------------------------------
Tabbed by: Graham Choo
Email: da_tweens@yahoo.co.uk

Tuning: Standard (Capo 2nd Fret)
Intro:
  D/B  C9 Dsus G  D/B  C9 Dsus G
e|-3---3---3---3---3---3---3---3---------------------------------|
B|-3---3---3---3---3---3---3---3---------------------------------|
G|-0---0---2---0---0---0---2---0---------------------------------|
D|-0---0---0---0---0---0---0---0---------------------------------|
A|-2---3-------0---2---3-------0---------------------------------|
E|-------------3---------------3---------------------------------|

Verse:
  D/B  C9 Dsus G  D/B  C9 Dsus G  D/B  C9 Dsus G  D/B  C9 Dsus G
e|-3---3---3---3---3---3---3---3---3---3---3---3---3---3---3---3-|
B|-3---3---3---3---3---3---3---3---3---3---3---3---3---3---3---3-|
G|-0---0---2---0---0---0---2---0---0---0---2---0---0---0---2---0-|
D|-0---0---0---0---0---0---0---0---0---0---0---0---0---0---0---0-|
A|-2---3-------0---2---3-------0---2---3-------0---2---3-------0-|
E|-------------3---------------3---------------3---------------3-|

Chorus:
  D/B  C9 Dsus G  D/B  C9 Dsus G  D/B  C9 Dsus G  D/B  C9 Dsus G
e|-3---3---3---3---3---3---3---3---3---3---3---3---3---3---3---3-|
B|-3---3---3---3---3---3---3---3---3---3---3---3---3---3---3---3-|
G|-0---0---2---0---0---0---2---0---0---0---2---0---0---0---2---0-|
D|-0---2---0---0---0---2---0---0---0---2---0---0---0---2---0---0-|
A|-2---3-------0---2---3-------0---2---3-------0---2---3-------0-|
E|-------------3---------------3---------------3---------------3-|

Interlude 1:
  D/B  C9 Dsus G
e|-3---3---3---3-------------------------------------------------|
B|-3---3---3---3-------------------------------------------------|
G|-0---0---2---0-------------------------------------------------|
D|-0---2---0---0-------------------------------------------------|
A|-2---3-------0-------------------------------------------------|
E|-------------3-------------------------------------------------|

Verse

Chorus

Interlude 1

Bridge:
   Em  C9 D/B Dsus Em  C9 D/B Dsus Em  C9 D/B Dsus Em Dsus Bb  C
e|-3---3---3---3---3---3---3---3---3---3---3---3---3---3---1---0-|
B|-3---3---3---3---3---3---3---3---3---3---3---3---3---3---1---1-|
G|-0---0---0---2---0---0---0---2---0---0---0---2---0---2---3---0-|
D|-2---0---0---0---2---0---0---0---2---0---0---0---2---0---3---2-|
A|-2---3---2-------2---3---2-------2---3---2-------2-------1---3-|
E|-0---------------0---------------0---------------0-------------|

  D/B  C9 Dsus G  D/B  C9 Dsus G
e|-3---3---3---3---3---3---3---3---------------------------------|
B|-3---3---3---3---3---3---3---3---------------------------------|
G|-0---0---2---0---0---0---2---0---------------------------------|
D|-0---0---0---0---0---0---0---0---------------------------------|
A|-2---3-------0---2---3-------0---------------------------------|
E|-------------3---------------3---------------------------------| 
OR
e|-3-----------3/5-3-----------3-----------3/5-3-5~-6-6/8~-------|
B|---5~-3-5/7~-------5~-3-5/7~---5~-3-5/7~-----------------------|
G|---------------------------------------------------------------|
D|---------------------------------------------------------------|
A|---------------------------------------------------------------|
E|---------------------------------------------------------------|

e|-3~-3/2-2/3-3~-3-7/8/10-10/15-14-15/17-15~---------------------|
B|---------------------------------------------------------------|
G|---------------------------------------------------------------|
D|---------------------------------------------------------------|
A|---------------------------------------------------------------|
E|---------------------------------------------------------------|

Chorus 2x

Interlude 2:
  D/B  C9 Dsus G  D/B  C9 Dsus G
e|-3---3---3---3---3---3---3---3---------------------------------|
B|-3---3---3---3---3---3---3---3---------------------------------|
G|-0---0---2---0---0---0---2---0---------------------------------|
D|-0---0---0---0---0---0---0---0---------------------------------|
A|-2---3-------0---2---3-------0---------------------------------|
E|-------------3---------------3---------------------------------|

Outro:
  D/B  C9 Dsus G  D/B  C9 Dsus G  D/B  C9 Dsus G  D/B  C9 Dsus G
e|-3---3---3---3---3---3---3---3---3---3---3---3---3---3---3---3-|
B|-3---3---3---3---3---3---3---3---3---3---3---3---3---3---3---3-|
G|-0---0---2---0---0---0---2---0---0---0---2---0---0---0---2---0-|
D|-0---0---0---0---0---0---0---0---0---0---0---0---0---0---0---0-|
A|-2---3-------0---2---3-------0---2---3-------0---2---3-------0-|
E|-------------3---------------3---------------3---------------3-|

  D/B  C9 Dsus G
e|-3---3---3---3-------------------------------------------------|
B|-3---3---3---3-------------------------------------------------|
G|-0---0---2---0-------------------------------------------------|
D|-0---0---0---0-------------------------------------------------|
A|-2---3-------0-------------------------------------------------|
E|-------------3-------------------------------------------------|

| /  slide up
| \  slide down
| h  hammer-on
| p  pull-off
| ~  vibrato
| +  harmonic
| x  Mute note

Click HERE To Download PDF

2 comments:

Author Aleja Bennett said...

Wow!! this is awesome and magnificent. To God be the glory for the things he has and will do for us in the future. God bless you over board and abundantly.
Sign the message board for me.
http://alejabennett.net84.net
http://alejabennett.blogspot.com
http://www.digitalcharity.com/m.php?id=39936

Anonymous said...

Thanks for the chords & the instructional. I can play it now :]

God bless you!