Thursday, November 20, 2008

Filled With Your Glory

Filled With Your GloryA worship song by Starfield. In Psalm 19:1, we see the prophet Isaiah's vision of heaven, and of God seated on His throne. And God was being worshiped by angels who proclaimed His holiness, omnipotence, and glory. Isaiah responded the only way he could in the presence of a holy God - he feared God, for he was sinful and lived among a sinful people (Isaiah 6:5).

Indeed God's glory is awesome, but fearsome as well. We see in Romans 1:20 that God has revealed qualities of Himself so clearly to us, since the creation of the world. But man have chosen to reject and rebel against God (Romans 1:21-23). Let us therefore come in reverence before our holy and glorious God, to thank and praise Him for what He's done - that we have been made righteous through faith in Christ and the power of His blood, to redeem us from God's judgment that should have been on us (Romans 3:22-24).





-----------------------------------------------------------------
FILLED WITH YOUR GLORY – Starfield
-----------------------------------------------------------------
Tabbed by: Graham Choo
Email: da_tweens@yahoo.co.uk

Tuning: Standard (Capo 1st Fret)
Intro:
   G
e|-3-----------------------------------------------------------------|
B|-3-----------------------------------------------------------------|
G|-0-----------------------------------------------------------------|
D|-0-----------------------------------------------------------------|
A|-2-----------------------------------------------------------------|
E|-3-----------------------------------------------------------------|
 OR
(Capo 4th Fret)
e|-------------------------------------------------------------------|
B|-9-7-7h10-9-7-7h10-------------------------------------------------|
G|-9-9-9-9--9-9-9----------------------------------------------------|
D|-9-9-9-9--9-9-9----------------------------------------------------|
A|-------------------------------------------------------------------|
E|-------------------------------------------------------------------|

Verse:
   G  Dsus C9 Am7 Dsus D   G  Dsus C9 Am7 Dsus D
e|-3---3---3---3---3---2---3---3---3---3---3---2---------------------|
B|-3---3---3---1---3---3---3---3---3---1---3---3---------------------|
G|-0---2---0---0---2---2---0---2---0---0---2---2---------------------|
D|-0---0---2---2---0---0---0---0---2---2---0---0---------------------|
A|-2-------3---0-----------2-------3---0-----------------------------|
E|-3-----------------------3-----------------------------------------|
 OR
   E       A          A/F#       Bsus  B7
e|-0---0---0---0---0---0---0---0---2---2-----------------------------|
B|-0---0---0---0---0---0---0---0---5---4-----------------------------|
G|-9---8---2---1---2---2---1---2---2---2-----------------------------|
D|-9---9---2---2---2---2---2---2---4---4-----------------------------|
A|-7---7---0---0---0---0---0---0---2---2-----------------------------|
E|---------------------2---------------------------------------------|

   E       A          A/F#       Bsus  B7
e|-0---0---0---0---0---0---0---0---2---2-----------------------------|
B|-0---0---0---0---0---0---0---0---5---4-----------------------------|
G|-9---8---2---1---2---2---1---2---2---2-----------------------------|
D|-9---9---2---2---2---2---2---2---4---4-----------------------------|
A|-7---7---0---0---0---0---0---0---2---2-----------------------------|
E|---------------------2---------------------------------------------|

Pre-Chorus:
   C9 G/B Dsus Am7 C9 G/B Dsus D
e|-3---3---3---3---3---3---3---2-------------------------------------|
B|-3---3---3---1---3---3---3---3-------------------------------------|
G|-0---0---2---0---0---0---2---2-------------------------------------|
D|-2---0---0---2---2---0---0---0-------------------------------------|
A|-3---2-------0---3---2---------------------------------------------|
E|-------------------------------------------------------------------|
 OR
   A        A/G#       B        A/F#       A        A/G#      Bsus B7
e|-------0-0-------0-0-------0-0-------0-0-------0-0-------0-0-2---2-|
B|---0---0-0---0---0-0---0---0-0---0---0-0---0---0-0---0---0-0-5---4-|
G|-2---2-2-2-----4-4-4-4---4-4-4-----2-2-2-2---2-2-2-----4-4-4-2---2-|
D|-2-------2-4-------4-4-------4-2-------2-2-------2-4-------4-4---4-|
A|-0---------x---------2---------x---------0---------x---------2---2-|
E|-----------4-------------------2-------------------4---------------|

Chorus 1:
   G  Dsus C9 Am7 Dsus D   G  Dsus C9 Am7 Dsus D
e|-3---3---3---3---3---2---3---3---3---3---3---2---------------------|
B|-3---3---3---1---3---3---3---3---3---1---3---3---------------------|
G|-0---2---0---0---2---2---0---2---0---0---2---2---------------------|
D|-0---0---2---2---0---0---0---0---2---2---0---0---------------------|
A|-2-------3---0-----------2-------3---0-----------------------------|
E|-3-----------------------3-----------------------------------------|
 OR
e|-----7-----7-----7-----7-----7-----7-----7-----7-5-4-5-4-7---------|
B|-4h5-5-4h5-5-4h5-5-4h5-5-4h5-5-4h5-5-4h5-5-4h5-5-5-5-5-5-5---------|
G|-4---4-4---4-4---4-4---4-4---4-4---4-4---4-4---4-4-4-4-4-4---------|
D|-------------------------------------------------------------------|
A|-------------------------------------------------------------------|
E|-------------------------------------------------------------------|

e|-----7-----7-----7-----7-----7-----7-----7-----7-5-4-5-4-7---------|
B|-4h5-5-4h5-5-4h5-5-4h5-5-4h5-5-4h5-5-4h5-5-4h5-5-5-5-5-5-5---------|
G|-4---4-4---4-4---4-4---4-4---4-4---4-4---4-4---4-4-4-4-4-4---------|
D|-------------------------------------------------------------------|
A|-------------------------------------------------------------------|
E|-------------------------------------------------------------------|

Intro

Verse

Pre-Chorus

Chorus 1

Chorus 2:
   G  Dsus C9 Am7 Dsus D
e|-3---3---3---3---3---2---------------------------------------------|
B|-3---3---3---1---3---3---------------------------------------------|
G|-0---2---0---0---2---2---------------------------------------------|
D|-0---0---2---2---0---0---------------------------------------------|
A|-2-------3---0-----------------------------------------------------|
E|-3-----------------------------------------------------------------|
 OR
e|-----7-----7-----7-----7-----7-----7-----7-----7-5-4-5-4-7---------|
B|-4h5-5-4h5-5-4h5-5-4h5-5-4h5-5-4h5-5-4h5-5-4h5-5-5-5-5-5-5---------|
G|-4---4-4---4-4---4-4---4-4---4-4---4-4---4-4---4-4-4-4-4-4---------|
D|-------------------------------------------------------------------|
A|-------------------------------------------------------------------|
E|-------------------------------------------------------------------|

Intro

| /  slide up
| \  slide down
| h  hammer-on
| p  pull-off
| ~  vibrato
| +  harmonic
| x  Mute note

Click HERE To Download PDF

1 comment:

Tessa said...

I recently came accross your blog and have been reading along. I thought I would leave my first comment. I don't know what to say except that I have enjoyed reading. Nice blog. I will keep visiting this blog very often.


Ruth

http://muffinsnow.com