Friday, November 28, 2008

Walk By Faith

Walk By Faith (Stay Album Version)A worship song by Jeremy Camp. In Hebrews 11, the writer writes about the heroes of faith throughout Israel's history. We see examples of Noah who built an ark in faith, according to God's warning, even when others thought he was crazy (Hebrews 11:7); Abraham, who by faith in God's promises, was willing to offer Issac, his only son, as a sacrifice unto Him (Hebrews 11:17-18); the Israelites, who by faith, believed that God would give them the victory over their enemies, and thus marched around the walls of Jericho for seven days, until it fell. (Hebrews 11:30)...

These were some of the examples given in the chapter that talked about people who walked by faith. Yet we can have faith in something greater - the blood of Christ that has borne God's wrath in our place, and made us righteous before Him, that we may come into His presence through a new and living way (Hebrews 10:19-22). We will walk by faith, even when we cannot see, because our hope is in Jesus and his finished work on the cross. Because he is faithful (Hebrews 10:23).





-----------------------------------------------------------------
WALK BY FAITH – Jeremy Camp
-----------------------------------------------------------------
Tabbed by: Graham Choo
Email: da_tweens@yahoo.co.uk

Tuning: Standard (Capo 3rd Fret)
Intro:
  Am7  C   G  Am7  C   G  Am7  C   G  D/F# C9  
e|-0---0---3---0---0---3---0---0---3---3---3---0-----------------|
B|-0h1-1---3---0h1-1---3---0h1-1---3---3---3---0-----------------|
G|-0---0---0h2-0---0---0h2-0---0---0h2-2---0---0-----------------|
D|-2---2---0---2---2---0---2---2---0---0---2---0-----------------|
A|-0---3---0---0---3---0---0---3---0---0---3---3-----------------|
E|---------3-----------3-----------3---2-------------------------|

Verse:
   Am  C   G   Am  C   G   Am  C   G  D/F# C9 D/C  C9
e|-0---0---3---0---0---3---0---0---3---3---3---2---3-------------|
B|-0---0---3---0---0---3---0---0---3---3---3---3---3-------------|
G|-0---0---0---0---0---0---0---0---0---2---0---0---0-------------|
D|-2---0---0---2---0---0---2---0---0---0---2---0---2-------------|
A|-0---3---0---0---3---0---0---3---0---0---3---3---3-------------|
E|---------3-----------3-----------3---2-------------------------|

Chorus 1:
   G  D/F# C9  Em Dsus C9  G  D/F# C9  Em Dsus C9  
e|-3---3---3---3---3---3---3---3---3---3---3---3---0-------------|
B|-3---3---3---3---3---3---3---3---3---3---3---3---0-------------|
G|-0---2---0---0---2---0---0---2---0---0---2---0---0-------------|
D|-0---0---2---2---0---2---0---0---2---2---0---2---0-------------|
A|-0---0---3---2-------3---0---0---3---2-------3---3-------------|
E|-3---2-------0-----------3---2-------0-------------------------|

Verse

Interlude:
  Dsus
e|-3-------------------------------------------------------------|
B|-3-------------------------------------------------------------|
G|-2-------------------------------------------------------------|
D|-0-------------------------------------------------------------|
A|---------------------------------------------------------------|
E|---------------------------------------------------------------|

Chorus 2:
   G  D/F# C9  Em Dsus C9  G  D/F# C9  Em Dsus C9 D/C
e|-3---3---3---3---3---3---3---3---3---3---3---3---2-------------|
B|-3---3---3---3---3---3---3---3---3---3---3---3---3-------------|
G|-0---2---0---0---2---0---0---2---0---0---2---0---0-------------|
D|-0---0---2---2---0---2---0---0---2---2---0---2---0-------------|
A|-0---0---3---2-------3---0---0---3---2-------3---3-------------|
E|-3---2-------0-----------3---2-------0-------------------------|

Bridge:
   Em Dsus C9 D/C  C9  Em Dsus C9 D/C  C9
e|-3---3---3---2---3---3---3---3---2---3-------------------------|
B|-3---3---3---3---3---3---3---3---3---3-------------------------|
G|-0---2---0---0---0---0---2---0---0---0-------------------------|
D|-2---0---2---0---2---2---0---2---0---2-------------------------|
A|-2-------3---3---3---2-------3---3---3-------------------------|
E|-0-------------------0-----------------------------------------|

Chorus 3:
   G  D/F# C9  Em Dsus C9  G  D/F# C9  Em Dsus C9 D/C  C9
e|-3---3---3---3---3---3---3---3---3---3---3---3---2---3---------|
B|-3---3---3---3---3---3---3---3---3---3---3---3---3---3---------|
G|-0---2---0---0---2---0---0---2---0---0---2---0---0---0---------|
D|-0---0---2---2---0---2---0---0---2---2---0---2---0---2---------|
A|-0---0---3---2-------3---0---0---3---2-------3---3---3---------|
E|-3---2-------0-----------3---2-------0-------------------------|

Chorus 4:
   G  D/F# C9  Em Dsus C9  G  D/F# C9  Em Dsus C9  
e|-3---3---3---3---3---3---3---3---3---3---3---3-----------------|
B|-3---3---3---3---3---3---3---3---3---3---3---3-----------------|
G|-0---2---0---0---2---0---0---2---0---0---2---0-----------------|
D|-0---0---2---2---0---2---0---0---2---2---0---2-----------------|
A|-0---0---3---2-------3---0---0---3---2-------3-----------------|
E|-3---2-------0-----------3---2-------0-------------------------|

Chorus 5:
   G  D/F# C9  Em Dsus C9  G  D/F# C9  Em Dsus C9          G
e|-3---3---3---3---3---3---3---3---3---3---3---3---0---0---3-----|
B|-3---3---3---3---3---3---3---3---3---3---3---3---3---0---3-----|
G|-0---2---0---0---2---0---0---2---0---0---2---0---0---0---0-----|
D|-0---0---2---2---0---2---0---0---2---2---0---2---2---2---0-----|
A|-0---0---3---2-------3---0---0---3---2-------3---3---3---0-----|
E|-3---2-------0-----------3---2-------0-------------------3-----|

| /  slide up
| \  slide down
| h  hammer-on
| p  pull-off
| ~  vibrato
| +  harmonic
| x  Mute note

Click HERE To Download PDF

1 comment:

Chris said...

Awesome job! I love playing that song. But I play the funky palm muting he does after the bridge, but still and AWESOME job. How you end the song sounds much better than how I end it too. Continue with the amazing gift God has given you.