Wednesday, February 11, 2009

Blessed

BlessedA worship song by Hillsong. The lyrics are taken from Psalm 84:4 - 8, where the psalmist writes of how those who dwell in God's house and set their hearts on seeking Him, are truly blessed.

We should set our hearts on seeking God, and find our strength to do so from Him. For we cannot truly seek and know God by our own strength, until His Spirit first convicts us of sin, turns us away from it, and causes us to look to Jesus as our Saviour, Redeemer, and King, and continues to work in us to seek Him continually. Hear our prayers God!





-----------------------------------------------------------------
BLESSED – Hillsong
-----------------------------------------------------------------
Tabbed by: Graham Choo
Email: da_tweens@yahoo.co.uk

Tuning: Standard
Intro:
    C9    C9    G     G     C9    C9    G     G
e|-2h3---2h3---2h3---2h3---2h3---2h3---2h3---2h3-----------------|
B|-3-3---3-3---3-3---3-3---3-3---3-3---3-3---3-3-----------------|
G|-0-0---0-0---0-0---0-0---0-0---0-0---0-0---0-0-----------------|
D|-0-0---0-0---0-0---0-0---0-0---0-0---0-0---0-0-----------------|
A|-3-3---3-3---0-0---0-0---3-3---3-3---0-0---0-0-----------------|
E|-------------3-3---3-3---------------3-3---3-3-----------------|

Verse 1:
    C9    C9    G     G     C9  Am7  D   G
e|-2h3---2h3---2h3---2h3---2h3---3---2---3-----------------------|
B|-3-3---3-3---3-3---3-3---3-3---1---3---3-----------------------|
G|-0-0---0-0---0-0---0-0---0-0---0---2---0-----------------------|
D|-0-0---0-0---0-0---0-0---0-0---2---0---0-----------------------|
A|-3-3---3-3---0-0---0-0---3-3---0-------2-----------------------|
E|-------------3-3---3-3-----------------3-----------------------|

Interlude 1:
   D  Asus Bm  G D/F# Asus Bm  G
e|-2---0---2---3---0---0---2---3---------------------------------|
B|-3---3---3---3---3---3---3---3---------------------------------|
G|-2---2---4---0---2---2---4---0---------------------------------|
D|-0---2---4---0---0---2---4---0---------------------------------|
A|-----0---2---2---0---0---2---2---------------------------------|
E|-------------3---2-----------3---------------------------------|

Verse 2:
  D/G  G  D/G  G     D     D  D/G  G   Em Asus D
e|-0---0---0---0---0-0---0-0---0---0---0---0---2-----------------|
B|-3---3---3---3---2h3---2h3---3---3---3---3---3-----------------|
G|-2---0---2---0---2-2---2-2---2---0---0---2---2-----------------|
D|-0---0---0---0---0-0---0-0---0---0---2---2---0-----------------|
A|-0---0---0---0---------------0---0---2---0---------------------|
E|-3---3---3---3---------------3---3---0-------------------------|

Verse 2

Pre-Chorus:
   G  Asus Bm  A
e|-3---0---2---0-------------------------------------------------|
B|-3---3---3---0-------------------------------------------------|
G|-0---2---4---2-------------------------------------------------|
D|-0---2---4---2-------------------------------------------------|
A|-2---0---2---0-------------------------------------------------|
E|-3-------------------------------------------------------------|

Chorus:
   D  Asus Bm  G D/F# Asus Bm  G
e|-0---0---2---3---0---0---2---3---------------------------------|
B|-3---3---3---3---3---3---3---3---------------------------------|
G|-2---2---4---0---2---2---4---0---------------------------------|
D|-0---2---4---0---0---2---4---0---------------------------------|
A|-----0---2---2---0---0---2---2---------------------------------|
E|-------------3---2-----------3---------------------------------|

Interlude 2:
  D/G  G  D/G  G     D     D
e|-0---0---0---0---0-0---0-0-------------------------------------|
B|-3---3---3---3---2h3---2h3-------------------------------------|
G|-2---0---2---0---2-2---2-2-------------------------------------|
D|-0---0---0---0---0-0---0-0-------------------------------------|
A|-0---0---0---0-------------------------------------------------|
E|-3---3---3---3-------------------------------------------------|

Verse 2

Pre-Chorus

Chorus 2x

Interlude 3:
     D  A/C# Bm  G     D  A/C# Bm  G
e|-0h2---0---2---3---0h2---0---2---3-----------------------------|
B|-3-3---0---3---3---3-3---0---3---3-----------------------------|
G|-2-2---2---4---0---2-2---2---4---0-----------------------------|
D|-0-0---0---4---0---0-0---0---4---0-----------------------------|
A|-------4---2---2---------4---2---2-----------------------------|
E|---------------3-----------------3-----------------------------|

Bridge:
   D  Asus Bm  G  D/G  D  Asus Bm  G  D/G
e|-2---0---2---3---2---2---0---2---3---2-------------------------|
B|-3---3---3---3---3---3---3---3---3---3-------------------------|
G|-2---2---4---0---0---2---2---4---0---0-------------------------|
D|-0---2---4---0---0---0---2---4---0---0-------------------------|
A|-----0---2---2---0-------0---2---2---0-------------------------|
E|-------------3---3---------------3---3-------------------------|

Bridge

Chorus 2x

Outro:
   G  D/G  G  D/G  D
e|-3---2---3---2---0---------------------------------------------|
B|-3---3---3---3---3---------------------------------------------|
G|-0---0---0---0---2---------------------------------------------|
D|-0---0---0---0---0---------------------------------------------|
A|-2---0---2---0-------------------------------------------------|
E|-3---3---3---3-------------------------------------------------|

| /  slide up
| \  slide down
| h  hammer-on
| p  pull-off
| ~  vibrato
| +  harmonic
| x  Mute note

Click HERE To Download PDF

1 comment:

ferry said...

nice blog.my blog:

http://www.dayspapalmharbor.blogspot.com