Monday, February 2, 2009

Way Back Into Love

A duet by Hugh Grant and Haley Bennett from the movie, Music And Lyrics. Thought the movie was really romantic and hilarious as well - especially the classic boyband music videos! We preformed this song initially at last year's Valentine's Day youth event, but I guess it's too weird having Daniel and I doing a romantic duet.

So here you go! Our very own Clara feat. Daniel. Hope you like it :)





------------------------------------------------------------------------
WAY BACK INTO LOVE – Hugh Grant & Haley Bennett
------------------------------------------------------------------------
Tabbed by: Graham Choo
Email: da_tweens@yahoo.co.uk

Tuning: Standard (Capo 1st Fret)

Intro:
G Em G Em
e|-3---3---3---3-------------------------------------------------|
B|-3---3---3---3-------------------------------------------------|
G|-0---0---0---0-------------------------------------------------|
D|-0---2---0---2-------------------------------------------------|
A|-2---2---2---2-------------------------------------------------|
E|-3---0---3---0-------------------------------------------------|

Verse:
G Em G Em Am7 Dsus D Am7 Dsus D
e|-3---3---3---3---3---3---2---3---3---2-------------------------|
B|-3---3---3---3---1---3---3---1---3---3-------------------------|
G|-0---0---0---0---0---2---2---0---2---2-------------------------|
D|-0---2---0---2---2---0---0---2---0---0-------------------------|
A|-2---2---2---2---0-----------0---------------------------------|
E|-3---0---3---0-------------------------------------------------|

Verse

Chorus 1:
G Em C9 G C D/B Am G Em C9 G Dsus
e|-3---3---3---3---------------3---3---3---3---3-----------------|
B|-3---3---3---3---------------3---3---3---3---3-----------------|
G|-0---0---0---0---0---0---0---0---0---0---0---2-----------------|
D|-0---2---2---0---2---0---2---0---2---2---0---0-----------------|
A|-2---2---3---2---3---2---0---2---2---3---2---------------------|
E|-3---0-------3---------------3---0-------3---------------------|

Verse 2x

Chorus 2:
G Em C9 G C D/B Am G Em C9 G D
e|-3---3---3---3---------------3---3---3---3---2-----------------|
B|-3---3---3---3---------------3---3---3---3---3-----------------|
G|-0---0---0---0---0---0---0---0---0---0---0---2-----------------|
D|-0---2---2---0---2---0---2---0---2---2---0---0-----------------|
A|-2---2---3---2---3---2---0---2---2---3---2---------------------|
E|-3---0-------3---------------3---0-------3---------------------|

Interlude:
G Em G Em Am7 Dsus Am7 Dsus D
e|-3---3---3---3---3---3---3---3---2-----------------------------|
B|-3---3---3---3---1---3---1---3---3-----------------------------|
G|-0---0---0---0---0---2---0---2---2-----------------------------|
D|-0---2---0---2---2---0---2---0---0-----------------------------|
A|-2---2---2---2---0-------0-------------------------------------|
E|-3---0---3---0-------------------------------------------------|

Verse

Chorus 3:
G Em C9 G C D/B Am G Em C9 G
e|-3---3---3---3---------------3---3---3---3---------------------|
B|-3---3---3---3---------------3---3---3---3---------------------|
G|-0---0---0---0---0---0---0---0---0---0---0---------------------|
D|-0---2---2---0---2---0---2---0---2---2---0---------------------|
A|-2---2---3---2---3---2---0---2---2---3---2---------------------|
E|-3---0-------3---------------3---0-------3---------------------|

Dsus D Em Am7 C9 Dsus
e|-3---2---3---3---3---3-----------------------------------------|
B|-3---3---3---1---3---3-----------------------------------------|
G|-2---2---0---0---0---2-----------------------------------------|
D|-0---0---2---2---2---0-----------------------------------------|
A|---------2---0---3---------------------------------------------|
E|---------0-----------------------------------------------------|

Outro:
G Em G Em G
e|-3---3---3---3---3---------------------------------------------|
B|-3---3---3---3---3---------------------------------------------|
G|-0---0---0---0---0---------------------------------------------|
D|-0---2---0---2---0---------------------------------------------|
A|-2---2---2---2---2---------------------------------------------|
E|-3---0---3---0---3---------------------------------------------|

| / slide up
| \ slide down
| h hammer-on
| p pull-off
| ~ vibrato
| + harmonic
| x Mute note

3 comments:

MharMS said...

Wow, what a great video. I like this song. Clara sings good. thanks for sharing.

Anonymous said...

nice couple...
haha..just kidding..
but nice singing~

Anonymous said...

Really nice voice for both of you!!!