Thursday, February 19, 2009

Give Me Words To Speak

Whispered And ShoutedA Christian contemporary song by Aaron Shust. It talks about how we are sinful and helpless beings, prone to doing nothing good in God's sight. In fact, Romans 3:10-12 tells us that no one is righteous. We have all sinned and and turned away from God, and we do no good in His sight.

That indeed is the state of man. But thanks be to God who in His great mercy, sent Jesus to die for our sins, that we may have His righteousness, and be righteous once again in God's sight. When left to ourselves, we can do nothing good. But the Holy Spirit works in us to sanctify us continually unto perfection. May the words we speak reflect Jesus' finished work on the cross for us, and the continuing work of the Holy Spirit in our lives!





-----------------------------------------------------------------
GIVE ME WORDS TO SPEAK – Aaron Shust
-----------------------------------------------------------------
Tabbed by: Graham Choo
Email: da_tweens@yahoo.co.uk

Tuning: Standard
Intro:
   A Amaj7 A7  D
e|-0---0---0---0-------------------------------------------------|
B|-0---2---2---3-------------------------------------------------|
G|-2---1---0---2-------------------------------------------------|
D|-2---2---2---0-------------------------------------------------|
A|-0---0---0-----------------------------------------------------|
E|---------------------------------------------------------------|

Verse:
   A Amaj7 A7  D   A Amaj7 A7  D
e|-0---0---0---0---0---0---0---0---------------------------------|
B|-0---2---2---3---0---2---2---3---------------------------------|
G|-2---1---0---2---2---1---0---2---------------------------------|
D|-2---2---2---0---2---2---2---0---------------------------------|
A|-0---0---0-------0---0---0-------------------------------------|
E|---------------------------------------------------------------|

Pre-Chorus:
   E  C#m  D   E  C#m  D
e|-0---4---0---0---4---0-----------------------------------------|
B|-0---5---3---0---5---3-----------------------------------------|
G|-1---6---2---1---6---2-----------------------------------------|
D|-2---6---0---2---6---0-----------------------------------------|
A|-2---4-------2---4---------------------------------------------|
E|-0-----------0-------------------------------------------------|

Chorus 1:
   A Amaj7 A7  Dm  G   A Amaj7 A7  F   G
e|-0---0---0---1---3---0---0---0---1---3-------------------------|
B|-0---2---2---3---3---0---2---2---1---3-------------------------|
G|-2---1---0---2---0---2---1---0---2---0-------------------------|
D|-2---2---2---0---0---2---2---2---3---0-------------------------|
A|-0---0---0-------0---0---0---0---3---0-------------------------|
E|-----------------3---------------1---3-------------------------|

Verse 

Pre-Chorus

Chorus 2:
   A Amaj7 A7  Dm  G   A Amaj7 A7  D
e|-0---0---0---1---3---0---0---0---0-----------------------------|
B|-0---2---2---3---3---0---2---2---3-----------------------------|
G|-2---1---0---2---0---2---1---0---2-----------------------------|
D|-2---2---2---0---0---2---2---2---0-----------------------------|
A|-0---0---0-------0---0---0---0---------------------------------|
E|-----------------3---------------------------------------------|

Interlude:
  F#m  E   D   C# F#m  E   D   C#
e|-2---0---0---4---2---0---0---4---------------------------------|
B|-2---0---3---6---2---0---3---6---------------------------------|
G|-2---1---2---6---2---1---2---6---------------------------------|
D|-4---2---0---6---4---2---0---6---------------------------------|
A|-4---2-------4---4---2-------4---------------------------------|
E|-2---0-----------2---0-----------------------------------------|

Bridge:
  F#m  E   D   C# F#m  E   D   E  C#m  D   E  C#m  D   Dm
e|-2---0---0---4---2---0---0---0---4---0---0---4---0---1---------|
B|-2---0---3---6---2---0---3---0---5---3---0---5---3---3---------|
G|-2---1---2---6---2---1---2---1---6---2---1---6---2---2---------|
D|-4---2---0---6---4---2---0---2---6---0---2---6---0---0---------|
A|-4---2-------4---4---2-------2---4-------2---4-----------------|
E|-2---0-----------2---0-------0-----------0---------------------|

Chorus 1 2x

| /  slide up
| \  slide down
| h  hammer-on
| p  pull-off
| ~  vibrato
| +  harmonic
| x  Mute note

Click HERE To Download PDF

4 comments:

Tunafish said...

Wow, like I'm following his blog and stuff! That's so cool! I've been looking for these chords for a while so thanks a lot. I appreciate your work so much!

Anonymous said...

Hi! My brother and I think you're awesome! Could you please do a video for Grace Like Rain by Todd Agnew?

Anonymous said...

Chords and lyrics please...thanks for sharing your talent. God bless you!

Brian said...

Daniel - your work has been a big help from time to time. Thanks from the heart of Ohio, USA!